Guitaretab - guitar tabs
Song name
# A B C D E F G H I J K L M N O P Q R S T U V W X Y Z
Home / S / Search / Pawana tab

Search - Pawana tab

intro
-----------------------------------------------------------------------------------------|
-----------------------------------------------------------------------------------------|
--{2}----------------{2}--------------------{2}------------------------------------------|
--{2}----------------{2}----------------0---{2}------------5-4-5-7-5-4----X 2------------|
--{0}- 0 0 0 0--2-3--{0}--0-0-0-0--2-3------{0}--0-0-0-0----------------7----------------|
-----------------------------------------------------------------------------------------|

verse
----------------------------------------------------------------------------------------|
----------------------------------------------------------------------------------------|
--{2}----------------{2}--------------------{2}-----------------------------------------|
--{2}----------------{2}--------------------{2}------------5-4-5-7-5-4---- X 2----------|
--{0}- 0 0 0 0--0-0--{0}--0-0-0-0--0-0------{0}--0-0-0-0----------------7---------------|
----------------------------------------------------------------------------------------|


----------------0--------------------------------------------0--------------------------|
----------------0--------------------------------------------2--------------------------|
----------------0---------2-4--2~4~2---------------------2------------------------------|
----------------2----2-5----------------5---3-2-----------2-----------------------------|
-5--3--5--7---2----------------------------------5-3-2---0------------------------------|
----------------0-----------------------------------------------------------------------|


chorus
A5-------D5-------G5------C5

-----------------------------------------------------------------------------------------|
-----------------------------------------------------------------------------------------|
--{2}----------------{2}--------------------{2}------------------------------------------|
--{2}----------------{2}----------------0---{2}------------5-4-5-7-5-4-------------------|
--{0}- 0 0 0 0--2-3--{0}--0-0-0-0--2-3------{0}--0-0-0-0----------------7----------------|
-----------------------------------------------------------------------------------------|

[ Tab from: http://www.guitaretab.com/s/search/229697.html ]
-----------------------------------------------------------------------------------------|
-----------------------------------------------------------------------------------------|
--{2}----------------{2}--------------------{2}------------------------------------------|
--{2}----------------{2}--------------------{2}------------5-4-5-7-5-4-------------------|
--{0}- 0 0 0 0--0-0--{0}--0-0-0-0--0-0------{0}--0-0-0-0----------------7----------------|
-----------------------------------------------------------------------------------------|

----------------0--------------------------------------------0---------------------------|
----------------0--------------------------------------------2---------------------------|
----------------0---------2-4--2~4~2---------------------2-------------------------------|
----------------2----2-5----------------5---3-2-----------2------------------------------|
-5--3--5--7---2----------------------------------5-3-2---0-------------------------------|
----------------0------------------------------------------------------------------------|



--------------------------------------------|
--------------------------------------------|
---------2-4--2~4~2-------------------------|
----2-5----------------5--3-2---------------|
----------------------------------5-3-2-----|
--------------------------------------------|


---------------------------------|
---------------------------------|
---------------------------------|
---------------------------------|
--0--3-7-6-3---3-5-3-------------|
----------------5--------5-------|


----------------------------------------------|
----------------------------------------------|
---------2-4--2~4~2---------------------------|
----2-5----------------5--3-2-----------------|
----------------------------------5-3-2--00---|
----------------------------------------------|


---------------------------------5--------------|
--------------------------------7---------------|
----------------5--8----------7-----------------|
----------4--7---------------7------------------|
-----3--6-------------------5-------------------|
--5---------------------------------------------|


---------------------------------|
---------------------------------|
---------------------------------|
---------------------------------|
--0--3-7-6-3---3-5-3-------------|
----------------5--------5-------|
Related for Pawana tab
Pawana chords by Search