Seasick Steve - Im So Lonesome I Could Cry tab

Open E. Use undampened metal slide. Seasick changes tempo when Amy LaVere comes in.

---0-----0-----0---------|
----0-----0-----0--------|
-----0-----0-----0-------|
--0-----0-----0----------|
-5-----4-----2-----0-2-4-|
-0-----------------------|

---0-----0--------------------------------|
----0-----0-------------------------------|
-----0-----0-0----------------------------|
--0-----0----0---0/2~/4~/5~5-55-5~/7~/0-0-|
-5-----4-----2~--0/2~/4~/5~5-55-5~/7~/0-0-|
-0----------------------------------------|
 I'm..    -some  I could cry
---------------------------|
-9/12-12~-7/9/5-7/9~-7~-5~-|
---------------------------|
---------------------------|
---------------------------|
-0--------------0----------|

D'you hear that lonesome whipperwill
It sounds too blue to fly
That midnight train is whining low
I'm so lonesome I could cry

Did you ever see a night so long
Where time goes crawlin by
That moon just went behind the clouds
To hang his head and cry

Did you ever see a robin weep
As leaves begin to die
That means he's lost the will to live
I'm so lonesome I could cry

Silence of a falling star
Lights up the purple sky
And as I wonder where you are
I'm so lonesome I could cry.

And as I wonder where you are
I'm so lonesome I could cry.


From Jack B.
Tap to rate this tab
 
# A B C D E F G H I J K L M N O P Q R S T U V W X Y Z