Secondhand Serenade - Awake Acoustic tab

Awake-Secondhand Serenade ...tab by Septi 

  Well ..my first tab so hope you like it :D Have fun:D

Intro:
e|--------------------------------------------------------------|
B|--------0------------0------------0------------0--------------|
G|------4---4--------4---4--------3---3--------3---3------------|
D|----4-------4----4-------4----4-------4----4-------4----------|  x2
A|--2------------2----------------------------------------------|
E|----------------------------4------------4--------------------|

Verse:
e|--------------------------------------------------------------|
B|--------0------------0------------0------------0--------------|
G|------4---4--------4---4--------3---3--------3---3------------|
D|----4-------4----4-------4----4-------4----4-------4----------| x2
A|--2------------2----------------------------------------------|
E|----------------------------4------------4--------------------|
  With every appearance by you, blinding my eyes,I can hardly remember

  The last time I felt like I do , you're an angel disguised. 

Prechorus:
e|--------------------------------------------------------------|
B|---------------------0------------0---0--------0---0----------|
G|--------4-1------------3------------6------------6------------|
D|------2-----2------4-----4------6------------6----------------|x2
A|----2------------4------------6------------6------------------|
E|--0------------2------------4------------4--------------------|
And you're lying real still, but your heart beat is fast just like mine. 

And the movie's long over, that's three that have passed, one more's fine.



Chorus:
e|--------------------------------------------------------------|
B|--------0------------0------------0----------0----------------|
G|------4---4--------4---1------------3--------------3----------|
D|----1-------1----2-------2------4-----4----6-----4------------|
A|--2---------------------------4-------------------------------|
E|---------------0------------2------------4-----2--------------|
      Will you stay awake for me? I don't wanna miss any...
e|--------------------------------------------------------------|
B|----------------------------------0-----0-----0---------------|
G|--------4-1----------4-1------------3-----3-----3-------------|
D|------2-----2------2-----2------4-----4-----4-----4-----------|
A|----2------------2------------4-------------------------------|
E|--0------------0------------2---------------------------------|
  ...thing  I don't wanna miss anything...

e|--------------------------------------------------------------|
B|--------0------------0------------0----------0----------------|
G|------4---4--------4---1------------3--------------3----------|
D|----1-------1----2-------2------4-----4----6-----4------------|
A|--2---------------------------4-------------------------------|
E|---------------0------------2------------4-----2--------------|

  I will share the air I breathe, I'll give you my heart on a...
e|--------------------------------------------------------------|
B|----------------------------------0-----0-----0---------------|
G|--------4-1----------4-1------------3-----3-----3-------------|
D|------2-----2------2-----2------4-----4-----4-----4-----------|
A|----2------------2------------4-------------------------------|
E|--0------------0------------2---------------------------------|
    ...string, I just don't wanna miss anything.


Interlude:
e|--------------------------------------------------------------|
B|--------0---------------0*------------------------------------|
G|------4----3h4--------3----3h4--------------------------------|
D|----4----------4----4----------4------------------------------|x2
A|--2-----------------------------------------------------------|
E|------------------4-------------------------------------------|
     *end here second time!


Verse:
e|--------------------------------------------------------------|
B|--------0------------0------------0------------0--------------|
G|------4---4--------4---4--------3---3--------3---3------------|
D|----4-------4----4-------4----4-------4----4-------4----------|x2
A|--2------------2----------------------------------------------|
E|----------------------------4------------4--------------------|
  ...I'm trying real hard not to shake. I'm biting my tongue, 
but I'm feeling alive and with every breathe that I take, 
I feel like I've won. You're my key to survival. 


PRECHORDS:

     C                 D 
And if it's a hero you want,
                      Em
I can save you. Just stay here.
     C      
Your whispers are priceless.
     D                            Em
Your breathe, it is dear. So please stay near.


CHORDS:

G    C        D
Will you stay awake for me? 
   Em          D       C
I don't wanna miss anything 
                      G
I don't wanna miss anything 
         G        C       D
I will share the air I breathe,
      Em           D           C 
I'll give you my heart on a string,
                            D 
I just don't wanna miss anything. 



BRIDGE:

Am   G   C           D
Say my name. I just want to hear you. 
Em   G   C            D
Say my name. So I know it's true. 
        Em                  G
You're changing me. You're changing me. 
      C               D
You showed me how to live. 
         C                    
So just say. 
         D
So just say 


CHORDS:

G    C        D
That you'll stay awake for me. 
   Em          D       C
I don't wanna miss anything 
                      G
I don't wanna miss anything 
         G        C       D
I will share the air I breathe,
      Em           D           C 
I'll give you my heart on a string,
                            D 
I just don't wanna miss anything. 

Tap to rate this tab
 
# A B C D E F G H I J K L M N O P Q R S T U V W X Y Z