Guitaretab - guitar tabs
Song name
# A B C D E F G H I J K L M N O P Q R S T U V W X Y Z
Home / S / Seeed / Aufstehn tab

Seeed - Aufstehn tab

----------------------------------------------------------------------------
			     Aufstehn - Seeed
----------------------------------------------------------------------------
Tabbed by: Martin Messner
Email: BigBonsai@hotmail.de

Tuning:

Intro (Strings)

e|-------------------------------------------|
B|-----------6-----------------------6-------|
G|---8-------------6-8------6----------------|
D|---------------------------------8---------|
A|-------------------------------------------|
E|-------------------------------------------|

Guitar
[ Tab from: http://www.guitaretab.com/s/seeed/188394.html ]
e|-----4----4----4----4----4----4----4----4--|
B|-----4----4----6----6----4----4----6----6--|
G|-----4----4----6----6----4----4----6----6--|
D|-------------------------------------------|
A|-------------------------------------------|
E|-------------------------------------------|
      G#m       C#        G#m       C# 


Flutes
e|-------------------------------------------|
B|-------------------------------------------|
G|----8-----------------------8--------------|
D|-------9---6---6---------------9---6---6---|
A|-------------------------------------------|
E|-------------------------------------------|

Bass
G|-------------------------------------------|
D|-------------------------------------------|
A|---2--4------------------4-2---------------|
E|----------------------------2--2-----------|

Related for Aufstehn tab