Song name
# A B C D E F G H I J K L M N O P Q R S T U V W X Y Z

Seether - Remedy tab

Help us improve GuitareTab! Take a short survey!
Remedy By Seether
Tabbed By Cory C.

qb - quarter bend
hb - half bend
fb - full bend
r - release
h - hammer-on
p - pull-off
X - Mute string
~ - vibrate
PM - palm mute

Drop D & 1/2 step down

1st Guitar, Intro (distorted)
|----------------|----------------|----------------|----------------|
|----------------|----------------|----------------|----------------|
|----------------|----------------|----------------|----------------|
|-2--X-0-2-2-0-5-|-2--X-0-2-2-0-5-|-2--X-0-2-2-0-5-|-2--X-0-2-2-0-5-|
|-2--X-0-2-2-0-5-|-2--X-0-2-2-0-5-|-2--X-0-2-2-0-5-|-2--X-0-2-2-0-5-|
|-2--X-0-2-2-0-5-|-2--X-0-2-2-0-5-|-2--X-0-2-2-0-5-|-2--X-0-2-2-0-5-|
2nd Guitar, Intro						   
|----------------|----------------|----------------|----------------|
|----------------|----------------|----------------|----4-----------|
|----------------|----------------|----------------|------------4---|
|----------------|----------------|----------------|----------5-----|
|----------------|----------------|----------------|----------------|
|----------------|----------------|----------------|----------------|

=======================================================================

1st Guitar
|----------------|----------------|----------------|----------------|
|----------------|----------------|----------------|----------------|
|----------------|----------------|----------------|----------------|
|-2--X-0-2-2-0-5-|-2--X-0-2-2-0-5-|-2--X-0-2-2-0-5-|-2--X-0-2-2-0-5-|
|-2--X-0-2-2-0-5-|-2--X-0-2-2-0-5-|-2--X-0-2-2-0-5-|-2--X-0-2-2-0-5-|
|-2--X-0-2-2-0-5-|-2--X-0-2-2-0-5-|-2--X-0-2-2-0-5-|-2--X-0-2-2-0-5-|
2nd Guitar
|----------------|----------------|----------------|----------------|
|----------------|----------------|----------------|----------------|
|----------------|----------------|----------------|----------------|
|----------------|----------------|----------------|----------------|
|----------------|----------------|----------------|----------------|
|----------------|----------------|----------------|----------------|

=======================================================================

1st Guitar
|----------------|----------------|----------------|----------------|
|----------------|----------------|----------------|----------------|
|----------------|----------------|----------------|----------------|
|-2--X-0-2-2-0-5-|-2--X-0-2-2-0-5-|-2--X-0-2-2-0-5-|-2--X-0-2-2-0-5-|
|-2--X-0-2-2-0-5-|-2--X-0-2-2-0-5-|-2--X-0-2-2-0-5-|-2--X-0-2-2-0-5-|
|-2--X-0-2-2-0-5-|-2--X-0-2-2-0-5-|-2--X-0-2-2-0-5-|-2--X-0-2-2-0-5-|
2nd Guitar
|----------------|----------------|----------------|----------------|
|12---12-12--9-10|12---12-12--9-10|12---12-12--9-10|15---15-15-13-12|
|14fb-14-14-10-12|14fb-14-14-10-12|14fb-14-14-10-12|17fb-17-17-15-14|
|----------------|----------------|----------------|----------------|
|----------------|----------------|----------------|----------------|
|----------------|----------------|----------------|----------------|

=======================================================================
=======================================================================

1st Guitar, Verse (clean)
|----------------|----------------|----------------|----------------|
|----------------|----------------|----------------|----------------|
|----------------|----------------|----------------|----------------|
|-----2-------0--|----2-------5---|-----2-------0--|----2-------5---|
|---2---2---0---0|--2---2---5---5-|---2---2---0---0|--2---2---5---5-|
|-2-------0------|2-------5-------|-2-------0------|2-------5-------|
2nd Guitar, Verse (clean)
|----------------|----------------|----------------|----------------|
|----------------|----------------|----------------|----------------|
|----------------|----------------|----------------|----------------|
|----------------|----------------|----------------|----------------|
|----------------|----------------|----------------|----------------|
|----------------|----------------|----------------|----------------|
(Throw..your dollar bills......)

=======================================================================

1st Guitar, Verse (clean)
|----------------|----------------|----------------|----------------|
|----------------|----------------|----------------|----------------|
|----------------|----------------|----------------|----------------|
|-----2-------0--|----2-------5---|-----2-------0--|----2-------5---|
|---2---2---0---0|--2---2---5---5-|---2---2---0---0|--2---2---5---5-|
|-2-------0------|2-------5-------|-2-------0------|2-------5-------|
2nd Guitar, Verse (clean)
|----------------|----------------|----------------|----------10-12~|
|----------------|----------------|----------------|----------------|
|----------------|----------------|----------------|----------------|
|----------------|----------------|----------------|----------------|
|----------------|----------------|----------------|----------------|
|----------------|----------------|----------------|----------------|
(speak but don't pretend.....) 

=======================================================================

1st Guitar, Verse (clean)
|----------------|----------------|----------------|----------------|
|----------------|----------------|----------------|----------------|
|----------------|----------------|----------------|----------------|
|-----2-------0--|----2-------5---|-----2-------0--|----2-------5---|
|---2---2---0---0|--2---2---5---5-|---2---2---0---0|--2---2---5---5-|
|-2-------0------|2-------5-------|-2-------0------|2-------5-------|
2nd Guitar, Verse (clean)
|----------------|----------------|----------------|----------10-12~|
|----------------|----------------|----------------|----------------|
|----------------|----------------|----------------|----------------|
|----------------|----------------|----------------|----------------|
|----------------|----------------|----------------|----------------|
|----------------|----------------|----------------|----------------|
(aches in every bone.....)

=======================================================================

1st Guitar, Verse (clean)
|----------------|----------------|----------------|----------------|
|----------------|----------------|----------------|----------------|
|----------------|----------------|----------------|----------------|
|-----2-------0--|----2-------5---|-----2-------0--|----2-------5---|
|---2---2---0---0|--2---2---5---5-|---2---2---0---0|--2---2---5---5-|
|-2-------0------|2-------5-------|-2-------0------|2-------5-------|
2nd Guitar, Verse (clean)
|----------------|----------------|----------------|----------------|
|----------------|----------------|----------------|----------------|
|----------------|----------------|----------------|----------------|
|----------------|----------------|----------------|----------------|
|----------------|----------------|----------------|----------------|
|----------------|----------------|----------------|----------------|
(eyes don't need to see.....)
 
=======================================================================
=======================================================================

1st Guitar, Bridge (distorted)
|-----------------|
|-----------------|
|-----------------|
|-7777777733333---|
|-7777777733333---|
|-7777777733333---|
2nd Guitar, Bridge
|-----------------|
|-----------------|
|---------------4-|*Harmonic squeal just after lyrics stop
|-----------------|
|-----------------|
|-----------------|
(if you want me hold me back)

=======================================================================
=======================================================================

1st Guitar, Chorus (distorted)
|----------------|----------------|----------------|----------------|
|----------------|----------------|----------------|----------------|
|----------------|----------------|----------------|----------------|
|-2--X-0-2-2-0-5-|-2--X-0-2-2-0-5-|-2--X-0-2-2-0-5-|--7--X-7-7-5-5--|
|-2--X-0-2-2-0-5-|-2--X-0-2-2-0-5-|-2--X-0-2-2-0-5-|--7--X-7-7-5-5--|
|-2--X-0-2-2-0-5-|-2--X-0-2-2-0-5-|-2--X-0-2-2-0-5-|--7--X-7-7-5-5--|
2nd Guitar, Chorus
|----------------|----------------|----------------|----------------|
|----------------|----------------|----------------|----------------|
|----------------|----------------|----------------|----------------|
|----------------|----------------|----------------|----------------|
|----------------|----------------|----------------|----------------|
|----------------|----------------|----------------|----------------|
(Frail, the skin is dry and pale....)

=======================================================================

1st Guitar, Chorus (distorted)
|----------------|----------------|----------------|----------------|
|----------------|----------------|----------------|----------------|
|----------------|----------------|----------------|----------------|
|-2--X-0-2-2-0-5-|-2--X-0-2-2-0-5-|-2--X-0-2-2-0-5-|--7--X-7-7-5-5--|
|-2--X-0-2-2-0-5-|-2--X-0-2-2-0-5-|-2--X-0-2-2-0-5-|--7--X-7-7-5-5--|
|-2--X-0-2-2-0-5-|-2--X-0-2-2-0-5-|-2--X-0-2-2-0-5-|--7--X-7-7-5-5--|
2nd Guitar, Chorus
|----------------|----------------|----------------|----------------|
|----------------|----------------|----------------|----------------|
|----------------|----------------|----------------|----------------|
|----------------|----------------|----------------|----------------|
|----------------|----------------|----------------|----------------|
|----------------|----------------|----------------|----------------|
(Clip the wings that get you high.....)

=======================================================================
=======================================================================

1st Guitar, Verse (distorted)
|----------------|----------------|----------------|----------------|
|----------------|----------------|----------------|----------------|
|----------------|----------------|----------------|----------------|
|-----2-------0--|----2-------5---|-----2-------0--|----2-------5---|
|---2---2---0---0|--2---2---5---5-|---2---2---0---0|--2---2---5---5-|
|-2-------0------|2-------5-------|-2-------0------|2-------5-------|
2nd Guitar, Verse (clean)
|----------------|----------------|----------------|----------10-12~|
|----------------|----------------|----------------|----------------|
|----------------|----------------|----------------|----------------|
|----------------|----------------|----------------|----------------|
|----------------|----------------|----------------|----------------|
|----------------|----------------|----------------|----------------|
(I don't need a friend.....)

=======================================================================

1st Guitar, Verse (distorted)
|----------------|----------------|----------------|----------------|
|----------------|----------------|----------------|----------------|
|----------------|----------------|----------------|----------------|
|-----2-------0--|----2-------5---|-----2-------0--|----2-------5---|
|---2---2---0---0|--2---2---5---5-|---2---2---0---0|--2---2---5---5-|
|-2-------0------|2-------5-------|-2-------0------|2-------5-------|
2nd Guitar, Verse (clean)
|----------------|----------------|----------------|----------10-12~|
|----------------|----------------|----------------|----------------|
|----------------|----------------|----------------|----------------|
|----------------|----------------|----------------|----------------|
|----------------|----------------|----------------|----------------|
|----------------|----------------|----------------|----------------|
(So come sit by the fire.....)

=======================================================================

1st Guitar, Verse (distorted)
|----------------|----------------|----------------|----------------|
|----------------|----------------|----------------|----------------|
|----------------|----------------|----------------|----------------|
|-----2-------0--|----2-------5---|-----2-------0--|----2-------5---|
|---2---2---0---0|--2---2---5---5-|---2---2---0---0|--2---2---5---5-|
|-2-------0------|2-------5-------|-2-------0------|2-------5-------|
2nd Guitar, Verse (clean)
|----------------|----------------|----------------|----------10-12~|
|----------------|----------------|----------------|----------------|
|----------------|----------------|----------------|----------------|
|----------------|----------------|----------------|----------------|
|----------------|----------------|----------------|----------------|
|----------------|----------------|----------------|----------------|
(It aches in every bone.....)

=======================================================================

1st Guitar, Verse (distorted)
|----------------|----------------|----------------|----------------|
|----------------|----------------|----------------|----------------|
|----------------|----------------|----------------|----------------|
|-----2-------0--|----2-------5---|-----2-------0--|----2-------5---|
|---2---2---0---0|--2---2---5---5-|---2---2---0---0|--2---2---5---5-|
|-2-------0------|2-------5-------|-2-------0------|2-------5-------|
2nd Guitar, Verse (clean)
|----------------|----------------|----------------|----------------|
|----------------|----------------|----------------|----------------|
|----------------|----------------|----------------|----------------|
|----------------|----------------|----------------|----------------|
|----------------|----------------|----------------|----------------|
|----------------|----------------|----------------|----------------|
(I see my heart explode.....)

=======================================================================
=======================================================================

1st Guitar, Bridge (distorted)
|-----------------|
|-----------------|
|-----------------|
|-7777777733333---|
|-7777777733333---|
|-7777777733333---|
2nd Guitar, Bridge
|-----------------|
|-----------------|
|---------------4-|*Harmonic squeal just after lyrics stop
|-----------------|
|-----------------|
|-----------------|
(if you want me hold me back)

=======================================================================
=======================================================================

1st Guitar, Chorus (distorted)
|----------------|----------------|----------------|----------------|
|----------------|----------------|----------------|----------------|
|----------------|----------------|----------------|----------------|
|-2--X-0-2-2-0-5-|-2--X-0-2-2-0-5-|-2--X-0-2-2-0-5-|--7--X-7-7-5-5--|
|-2--X-0-2-2-0-5-|-2--X-0-2-2-0-5-|-2--X-0-2-2-0-5-|--7--X-7-7-5-5--|
|-2--X-0-2-2-0-5-|-2--X-0-2-2-0-5-|-2--X-0-2-2-0-5-|--7--X-7-7-5-5--|
2nd Guitar, Chorus
|----------------|----------------|----------------|----------------|
|----------------|----------------|----------------|----------------|
|----------------|----------------|----------------|----------------|
|----------------|----------------|----------------|----------------|
|----------------|----------------|----------------|----------------|
|----------------|----------------|----------------|----------------|
(Frail, the skin is dry and pale....)

=======================================================================

1st Guitar, Chorus (distorted)
|----------------|----------------|----------------|----------------|
|----------------|----------------|----------------|----------------|
|----------------|----------------|----------------|----------------|
|-2--X-0-2-2-0-5-|-2--X-0-2-2-0-5-|-2--X-0-2-2-0-5-|--7--X-7-7-5-5--|
|-2--X-0-2-2-0-5-|-2--X-0-2-2-0-5-|-2--X-0-2-2-0-5-|--7--X-7-7-5-5--|
|-2--X-0-2-2-0-5-|-2--X-0-2-2-0-5-|-2--X-0-2-2-0-5-|--7--X-7-7-5-5--|
2nd Guitar, Chorus
|----------------|----------------|----------------|----------------|
|----------------|----------------|----------------|----------------|
|----------------|----------------|----------------|----------------|
|----------------|----------------|----------------|----------------|
|----------------|----------------|----------------|----------------|
|----------------|----------------|----------------|----------------|
(Clip the wings that get you high.....)

=======================================================================

1st Guitar, Chorus (distorted)
|----------------|----------------|----------------|----------------|
|----------------|----------------|----------------|----------------|
|----------------|----------------|----------------|----------------|
|-2--X-0-2-2-0-5-|-2--X-0-2-2-0-5-|-2--X-0-2-2-0-5-|--7--X-7-7-5-5--|
|-2--X-0-2-2-0-5-|-2--X-0-2-2-0-5-|-2--X-0-2-2-0-5-|--7--X-7-7-5-5--|
|-2--X-0-2-2-0-5-|-2--X-0-2-2-0-5-|-2--X-0-2-2-0-5-|--7--X-7-7-5-5--|
2nd Guitar, Chorus
|----------------|----------------|----------------|----------------|
|----------------|----------------|----------------|----------------|
|----------------|----------------|----------------|----------------|
|----------------|----------------|----------------|----------------|
|----------------|----------------|----------------|----------------|
|----------------|----------------|----------------|----------------|
(Frail, the skin is dry and pale....)

=======================================================================

1st Guitar, Chorus (distorted)
|----------------|----------------|----------------|----------------|
|----------------|----------------|----------------|----------------|
|----------------|----------------|----------------|----------------|
|-2--X-0-2-2-0-5-|-2--X-0-2-2-0-5-|-2--X-0-2-2-0-5-|--7--X-7-7-5-5--|
|-2--X-0-2-2-0-5-|-2--X-0-2-2-0-5-|-2--X-0-2-2-0-5-|--7--X-7-7-5-5--|
|-2--X-0-2-2-0-5-|-2--X-0-2-2-0-5-|-2--X-0-2-2-0-5-|--7--X-7-7-5-5--|
2nd Guitar, Chorus
|----------------|----------------|----------------|----------------|
|----------------|----------------|----------------|----------------|
|----------------|----------------|----------------|----------------|
|----------------|----------------|----------------|----------------|
|----------------|----------------|----------------|----------------|
|----------------|----------------|----------------|----------------|
(Clip the wings that get you high.....)

=======================================================================
=======================================================================

1st Guitar, Verse (distorted)
|---------------------------------|---------------------------------|
|---------------------------------|---------------------------------|
|---------------------------------|---------------------------------|
|-7-7-7-7-7-7-7-7-5-5-5-5-5-5-0-0-|-7-7-7-7-7-7-7-7-5-5-5-5-5-5-0-0-|
|-7-7-7-7-7-7-7-7-5-5-5-5-5-5-0-0-|-7-7-7-7-7-7-7-7-5-5-5-5-5-5-0-0-|
|-7-7-7-7-7-7-7-7-5-5-5-5-5-5-0-0-|-7-7-7-7-7-7-7-7-5-5-5-5-5-5-0-0-|

2nd Guitar, Verse
|----------------|----------------|----------------|----------------|
|----------------|----------------|----------------|----------------|
|----------------|----------------|----------------|----------------|
|----------------|----------------|----------------|----------------|
|----------------|----------------|----------------|----------------|
|----------------|----------------|----------------|----------------|
(Hold your eyes closed, take me in) 

=======================================================================

1st Guitar, Verse (distorted)
|---------------------------------|---------------------------------|
|---------------------------------|---------------------------------|
|---------------------------------|---------------------------------|
|-7-7-7-7-7-7-7-7-5-5-5-5-5-5-0-0-|-7-7-7-7-7-7-7-7-5-5-5-5-5-5-0-0-|
|-7-7-7-7-7-7-7-7-5-5-5-5-5-5-0-0-|-7-7-7-7-7-7-7-7-5-5-5-5-5-5-0-0-|
|-7-7-7-7-7-7-7-7-5-5-5-5-5-5-0-0-|-7-7-7-7-7-7-7-7-5-5-5-5-5-5-0-0-|

2nd Guitar, Verse
|----------------|----------------|----------------|----------------|
|----------------|----------------|----------------|----4-----------|
|----------------|----------------|----------------|------------4---|
|----------------|----------------|----------------|----------5-----|
|----------------|----------------|----------------|----------------|
|----------------|----------------|----------------|----------------|
(Hold your eyes closed, take me in)

=======================================================================
=======================================================================

1st Guitar, Bridge (palm-muted)
|----------------|----------------|----------------|----------------|
|----------------|----------------|----------------|----------------|
|----------------|----------------|----------------|----------------|
|-2--X-0-2-2-0-5-|-2--X-0-2-2-0-5-|-2--X-0-2-2-0-5-|-2--X-0-2-2-0-5-|
|-2--X-0-2-2-0-5-|-2--X-0-2-2-0-5-|-2--X-0-2-2-0-5-|-2--X-0-2-2-0-5-|
|-2--X-0-2-2-0-5-|-2--X-0-2-2-0-5-|-2--X-0-2-2-0-5-|-2--X-0-2-2-0-5-|
2nd Guitar, Bridge						   
|----------------|----------------|----------------|----------------|
|----------------|----------------|----------------|----4-----------|
|----------------|----------------|----------------|------------4---|
|----------------|----------------|----------------|----------5-----|
|----------------|----------------|----------------|----------------|
|----------------|----------------|----------------|----------------|

=======================================================================
=======================================================================

1st Guitar, Outro (distorted)
|----------------|----------------|----------------|----------------|
|----------------|----------------|----------------|----------------|
|----------------|----------------|----------------|----------------|
|-2--X-0-2-2-0-5-|-2--X-0-2-2-0-5-|-2--X-0-2-2-0-5-|--7--X-7-7-5-5--|
|-2--X-0-2-2-0-5-|-2--X-0-2-2-0-5-|-2--X-0-2-2-0-5-|--7--X-7-7-5-5--|
|-2--X-0-2-2-0-5-|-2--X-0-2-2-0-5-|-2--X-0-2-2-0-5-|--7--X-7-7-5-5--|
2nd Guitar, Outro (lots of distortion and overdrive)
|----------------|----------------|----------------|----------------|
|----------------|----------------|----------------|----------------|
|14fb-14-14-10-12|14fb-14-14-10-12|14fb-14-14-10-12|15---15-15-13-12|
|12---12-12--9-10|12---12-12--9-10|12---12-12--9-10|17fb-17-17-15-14|
|----------------|----------------|----------------|----------------|
|----------------|----------------|----------------|----------------|

=======================================================================

1st Guitar, Outro (distorted)
|----------------|----------------|----------------|----------------|
|----------------|----------------|----------------|----------------|
|----------------|----------------|----------------|----------------|
|-2--X-0-2-2-0-5-|-2--X-0-2-2-0-5-|-2--X-0-2-2-0-5-|--7--X-7-7-5-5--|
|-2--X-0-2-2-0-5-|-2--X-0-2-2-0-5-|-2--X-0-2-2-0-5-|--7--X-7-7-5-5--|
|-2--X-0-2-2-0-5-|-2--X-0-2-2-0-5-|-2--X-0-2-2-0-5-|--7--X-7-7-5-5--|
2nd Guitar, Outro (lots of distortion and overdrive)
|----------------|----------------|----------------|----------------|
|-12---12---12---|12---12----9-10-|-12---12---12---|12---15-15-15-15|
|-14fb-14fb-14fb-|14fb-14fb-11-12-|-14fb-14fb-14fb-|14fb-17fb-------|
|----------------|----------------|----------------|----------------|
|----------------|----------------|----------------|----------------|
|----------------|----------------|----------------|----------------|

=======================================================================
=======================================================================

1st Guitar, Ending (distorted)
|----------------|----------------|----------------|----------------|
|----------------|----------------|----------------|----------------|
|----------------|----------------|----------------|----------------|
|-2--X-0-2-2-0-5-|-2--X-0-2-2-0-5-|-2--X-0-2-2-0-5-|--7--X-7-7-5-5--|
|-2--X-0-2-2-0-5-|-2--X-0-2-2-0-5-|-2--X-0-2-2-0-5-|--7--X-7-7-5-5--|
|-2--X-0-2-2-0-5-|-2--X-0-2-2-0-5-|-2--X-0-2-2-0-5-|--7--X-7-7-5-5--|
2nd Guitar, Ending
|----------------|----------------|----------------|----------------|
|----------------|----------------|----------------|----------------|
|----------------|----------------|----------------|----------------|
|----------------|----------------|----------------|----------------|
|----------------|----------------|----------------|----------------|
|----------------|----------------|----------------|----------------|
(Frail, the skin is dry and pale....)

=======================================================================

1st Guitar, Ending (distorted)
|----------------|----------------|----------------|----------------|
|----------------|----------------|----------------|----------------|
|----------------|----------------|----------------|----------------|
|-2--X-0-2-2-0-5-|-2--X-0-2-2-0-5-|-2--X-0-2-2-0-5-|--7--X-7-7-5-5--|
|-2--X-0-2-2-0-5-|-2--X-0-2-2-0-5-|-2--X-0-2-2-0-5-|--7--X-7-7-5-5--|
|-2--X-0-2-2-0-5-|-2--X-0-2-2-0-5-|-2--X-0-2-2-0-5-|--7--X-7-7-5-5--|
2nd Guitar, Ending
|----------------|----------------|----------------|----------------|
|----------------|----------------|----------------|----------------|
|----------------|----------------|----------------|----------------|
|----------------|----------------|----------------|----------------|
|----------------|----------------|----------------|----------------|
|----------------|----------------|----------------|----------------|
(Clip the wings that get you high.....)

=======================================================================

1st Guitar, Ending (distorted)
|----------------|----------------|----------------|----------------|
|----------------|----------------|----------------|----------------|
|----------------|----------------|----------------|----------------|
|-2--X-0-2-2-0-5-|-2--X-0-2-2-0-5-|-2--X-0-2-2-0-5-|--7--X-7-7-5-5--|
|-2--X-0-2-2-0-5-|-2--X-0-2-2-0-5-|-2--X-0-2-2-0-5-|--7--X-7-7-5-5--|
|-2--X-0-2-2-0-5-|-2--X-0-2-2-0-5-|-2--X-0-2-2-0-5-|--7--X-7-7-5-5--|
2nd Guitar, Ending
|----------------|----------------|----------------|----------------|
|----------------|----------------|----------------|----------------|
|----------------|----------------|----------------|----------------|
|----------------|----------------|----------------|----------------|
|----------------|----------------|----------------|----------------|
|----------------|----------------|----------------|----------------|
(Frail, the skin is dry and pale....)

=======================================================================

1st Guitar, Ending (distorted)
|----------------|----------------|----------------|----------------|
|----------------|----------------|----------------|----------------|
|----------------|----------------|----------------|----------------|
|-2--X-0-2-2-0-5-|-2--X-0-2-2-0-5-|-2--X-0-2-2-0-5-|--7--X-7-7-5-5--|
|-2--X-0-2-2-0-5-|-2--X-0-2-2-0-5-|-2--X-0-2-2-0-5-|--7--X-7-7-5-5--|
|-2--X-0-2-2-0-5-|-2--X-0-2-2-0-5-|-2--X-0-2-2-0-5-|--7--X-7-7-5-5--|
2nd Guitar, Ending
|----------------|----------------|----------------|----------------|
|----------------|----------------|----------------|----------------|
|----------------|----------------|----------------|----------------|
|----------------|----------------|----------------|----------------|
|----------------|----------------|----------------|----------------|
|----------------|----------------|----------------|----------------|
(Clip the wings that get you high.....)                (mute last note)

THE END!
=======================================================================
=======================================================================
Related for Remedy tab