Song name
# A B C D E F G H I J K L M N O P Q R S T U V W X Y Z

Seether - Im The One tab

Artist:Seether
Album:Karma And Effect
Song:Im The One
Db Ab Db Gb Bb Eb

| ----------------------|
| ----------------------|
| ----------------------|
| -3h5--2-2--1h0--------|
| -3h5--2-2--1h0--------|
Intro - Guitar 1 - Shaun

| ---------------------|
| ---------------------|
| -9-9--6--7--8-h10----|
| ---------------------|
| -7-7--8--5--10h12----|
| ---------------------|
Intro - Guitar 2 - Pat

|-----------------------------------|
|--5--6--5----5--6--5---------------|
|-----------4----------4------------|
|-----------------------------------|
|-------------------------3h5-2\----|
|-------------------------3h5-2\----|
Verse - Guitar 2 - Pat

Pre-Chorus - Both Guitars
| ----------------------|
| ----------------------|
| ----------------------|
| -3h5--2-2--1h0--------|
| -3h5--2-2--1h0--------|

Chorus
| ------------------------------------------------------------|
| ------------------------------------------------------------|
| ------------------------------------------------------------|
| -4--4-4-4--4-4-4\10--10-10-10--10-10--7-7-7--7-7-7-7--9-9-9-|
| -2--2-2-2--2-2-2\-8---8--8--8---8--8--5-5-5--5-5-5-5--7-7-7-|
| ------------------------------------------------------------|

Bridge Interlude
| ----------------|
| ----------------|
| ----------------|
| ----------------|
| ---7b-----------|
| -0----0-7bs-----|

Bridge
| ------------------------------|
| ------------------------------|
| ------------------------------|
| ------------------------------|
| -0-3-2-0-2-1-0-3-2-0-2-1------|
| -0-3-2-0-2-1-0-3-2-0-2-1------|

Outro - Guitar 2 - Pat
| ---------------------|
| ---------------------|
| -9-9--6--7--8-h10----|
| ---------------------|
| -7-7--8--5--10h12----|
| ---------------------|
Tap to rate this tab
# A B C D E F G H I J K L M N O P Q R S T U V W X Y Z