Song name
# A B C D E F G H I J K L M N O P Q R S T U V W X Y Z

Seether - Truth tab

----------------------------------------------------------------
			  Truth - Seether
----------------------------------------------------------------
Tabbed by: Dan4ftball14
Email: Dan4ftball13@yahoo.com

Tuning: Drop D


*Well I realize this is probably not the right way to play this
but this is how I initially learned it, and it saddened me not
to find this version anymore. Don’t worry, I actually wrote this,
just from memory. 

Think of this more as a super novice version of Truth. Good Luck! 


Verse I

e|---------------------------------------------------------------------|
B|---------------------------------------------------------------------|
G|---------------------------------------------------------------------|
D|-------8----------6-----------4~---------8-----------6-----------4~--| X2
A|----8----8-----6-----6-----4----------8-----8-----6-----6-----4------|
D|-8----------6-----------4----------8-----------6-----------4---------|

Bridge

e|------------------------------------------|
B|------------------------------------------|
G|------------------------------------------|
D|-10--8---8-8-8--6---6-6-6--4--4--1--4-----| X2
A|-10--8---8-8-8--6---6-6-6--4--4--1--4-----|
D|-10--8---8-8-8—-6---6-6-6--4--4--1--4-----|

Verse II

e|---------------------------------------------------------------------|
B|---------------------------------------------------------------------|
G|---------------------------------------------------------------------|
D|-------8----------6-----------4~---------8-----------6-----------4~--| X2
A|----8----8-----6-----6-----4----------8-----8-----6-----6-----4------|
D|-8----------6-----------4----------8-----------6-----------4---------|

Bridge

e|------------------------------------------|
B|------------------------------------------|
G|------------------------------------------|
D|-10--8---8-8-8--6---6-6-6--4--4--1--4-----| X2
A|-10--8---8-8-8--6---6-6-6--4--4--1--4-----|
D|-10--8---8-8-8—-6---6-6-6--4--4--1--4-----|

Chorus

e|------------------------------------------|
B|------------------------------------------|
G|------------------------------------------|
D|-8—--8-8--1---1-1--4---4-4--6---6-6-------| X4
A|-8---8-8--1---1-1--4---4-4--6---6-6-------|
D|-8---8-8--1---1-1--4---4-4--6---6-6-------|

Verse III

e|---------------------------------------------------------------------|
B|---------------------------------------------------------------------|
G|---------------------------------------------------------------------|
D|-------8----------6-----------4~---------8-----------6-----------4~--| X2
A|----8----8-----6-----6-----4----------8-----8-----6-----6-----4------|
D|-8----------6-----------4----------8-----------6-----------4---------|

Bridge

e|------------------------------------------|
B|------------------------------------------|
G|------------------------------------------|
D|-10--8---8-8-8--6---6-6-6--4--4--1--4-----| X2
A|-10--8---8-8-8--6---6-6-6--4--4--1--4-----|
D|-10--8---8-8-8—-6---6-6-6--4--4--1--4-----|

Chorus

e|------------------------------------------|
B|------------------------------------------|
G|------------------------------------------|
D|-8—--8-8--1---1-1--4---4-4--6---6-6-------| X4
A|-8---8-8--1---1-1--4---4-4--6---6-6-------|
D|-8---8-8--1---1-1--4---4-4--6---6-6-------|

Solo

e|--------------------------------------------------------|
B|-11—9p--------------------------------------------------|
G|--------11--10---11--10-10---11-----------------11--13--|
D|---------------------------------11--13---11-13h--------|
A|--------------------------------------------------------|
D|--------------------------------------------------------|

e|------------------------13---14---13---14---------------|
B|-11—9p--------------------------------------------------|
G|--------11-10---11-10----------------------------11-13--|
D|-------------------------------------------11-13h-------|
A|--------------------------------------------------------|
D|--------------------------------------------------------|

e|--------------------------------------------------------|
B|-11—9p--------------------------------------------------|
G|--------11--10---11--10-10---11-----------------11--13--|
D|---------------------------------11--13---11-13h--------|
A|--------------------------------------------------------|
D|--------------------------------------------------------|

e|------------------------13---14---13~~------------------|
B|-11—9p--------------------------------------------------|
G|--------11-10---11-10-----------------------------------|
D|--------------------------------------------------------|
A|--------------------------------------------------------|
D|--------------------------------------------------------|

Post Solo Riff

e|---------------------------------------------------------------------|
B|---------------------------------------------------------------------|
G|---------------------------------------------------------------------|
D|-------8----------6-----------4~---------8-----------6-----------4~--|
A|----8----8-----6-----6-----4----------8-----8-----6-----6-----4------|
D|-8----------6-----------4----------8-----------6-----------4---------|

Chorus

e|------------------------------------------|
B|------------------------------------------|
G|------------------------------------------|
D|-8—--8-8--1---1-1--4---4-4--6---6-6-------| X8
A|-8---8-8--1---1-1--4---4-4--6---6-6-------|
D|-8---8-8--1---1-1--4---4-4--6---6-6-------|

Bridge

e|------------------------------------------|
B|------------------------------------------|
G|------------------------------------------|
D|-10--8---8-8-8--6---6-6-6--4--4--1--4-----| X4
A|-10--8---8-8-8--6---6-6-6--4--4--1--4-----|
D|-10--8---8-8-8—-6---6-6-6--4--4--1--4-----|

Ending Notes

e|-------------------------|
B|-------------------------|
G|-------------------------|
D|-1-1-1-1-1~--------------|
A|-1-1-1-1-1~--------------|
D|-1-1-1-1-1~--------------|

| /  slide up
| \  slide down
| h  hammer-on
| p  pull-off
| ~  vibrato
| +  harmonic
| x  Mute note
======================================
Tap to rate this tab
 
# A B C D E F G H I J K L M N O P Q R S T U V W X Y Z