Guitaretab - guitar tabs
Song name
# A B C D E F G H I J K L M N O P Q R S T U V W X Y Z

Seether - Breakdown tab

			     BREAKDOWN - SEETHER

Tabbed by:Travis
Email:tewells27@yahoo.com

Tuning:Db,Ab,Db,Gb,Bb,Eb


Intro/Rhy Fig 1..play  4X


e|----------------------------------------------------------------------------|
B|----------------------------------------------------------------------------|
G|-------------4----4--4--4---------------------------------------------------|
D|--5---4---0--2----2--2--2---------9--7---4---4--4--4h5---4---0--------------|
A|--2---2---0--2----------2--5--5---0--0---0---0--0--0-----0---0--------------|
E|--2------------------------5--5---0----------------------0---0--------------|

e|----------------------------------------------------------------------------|
B|----------------------------------------------------------------------------|
G|-------------4----4--4--4--------------------------------12-------0--0------|
D|--5---4---0--2----2--2--2----------9--7--12---12--12h14---x---14--0--0------|
A|--2---2---0--2----------2---5--5---0--0---0--------0------------------------|
E|--2-------------------------5--5--------------------------------------------|

Rhy Fig 2 Chords....Em,E5,Dsus2

e|------------0---------------------------------------------------------------|
B|------------3---------------------------------------------------------------|
G|-------4----2---------------------------------------------------------------|
D|---5---2----0---------------------------------------------------------------|
A|---2---2----0---------------------------------------------------------------|
E|---2---2----0---------------------------------------------------------------|


Chorus.Rhy Fig 3..If playing acoustic you can use C instead of Csus2 like shaun plays 
on the acoustic version.Play 2x then end on Asus2
                                                                                         
                                                                Asus2
e|--3---------------------------------------------------------------0---------|
B|--3---------------------------------------------------------------0---------|
G|--5---x8---------------------------4---4---4---4---4---4--4-4-----2---------|
D|--5------------------5----4--------2---2---2---2---2---2--2-2-----2---------|
A|--3---------0-0------2----2----0---2---2---2---2---2---2--2-2-----0---------|
E|------------0-0------2---------0---2---2---2---2---2---2--0-0-----0---------|

[ Tab from: http://www.guitaretab.com/s/seether/160892.html ]
   Lead Guitar Over Rhy Fig 1
e|----------------------------------------------------------------------------|
B|--7h8h7---------7h8h7--------7h8--7h8/10---8v---7-7v------------------------|
G|--------7-------------7--------------------------------7--------------------|
D|-----------9------------9----------------------------------7----------------|
A|----------------------------------------------------------------------------|
E|----------------------------------------------------------------------------|


Guitar Solo over Rhy Fig 3
e|----------------------------------------------------------------------------|
B|--7h8h7--------7h8h7--------7h8--7h8/10--8v-7--7v---------7h8h7-------------|
G|--------7-------------7---------------------------7-------------7-----------|
D|----------9--------------9---------------------------7-------------9--------|
A|----------------------------------------------------------------------------|
E|----------------------------------------------------------------------------|

e|---------------------------12--10---7-------------10---10/12--12---12--10---|
B|--7h8h7--------7h8-7h8/10---------------10-10/12--10---10/12--12---12--10---|
G|--------7-------------------------------------------------------------------|
D|-----------9----------------------------------------------------------------|
A|----------------------------------------------------------------------------|
E|----------------------------------------------------------------------------|

e|-10/12---12--12--12---------------------------------------------------------|
B|-10/12---12--12--12---------------------------------------------------------|
G|----------------------------------------------------------------------------|
D|----------------------------------------------------------------------------|
A|----------------------------------------------------------------------------|
E|----------------------------------------------------------------------------|

    Outro Lead                                                                           
  End on C or Csus2
e|---0-----0---0---0---0-------0---0----10------------------------------------|
B|--12----12--12--12--12------10---10----8------------------------------------|
G|----------------------------------------------------------------------------|
D|----------------------------------------------------------------------------|
A|----------------------------------------------------------------------------|
E|----------------------------------------------------------------------------|

| /  slide up
| \  slide down
| h  hammer-on
| p  pull-off
| ~  vibrato
| +  harmonic
| x  Mute note
Related for Breakdown tab
Advertisement will be closed in 10 seconds