Song name
# A B C D E F G H I J K L M N O P Q R S T U V W X Y Z

Seether - Careless Whisper tab

Hey, wassup? Seether just covered a new song, and I HAD to learn how to play it. Before
else has a tab up of the song, I have one here. It's really accurate; The only thing I'm
too sure of are the leads. I'm 99% positive they're right, but the second lead seems 
off, but it's close enough.

The rhythm is REALLY easy to figure out. For the outro, just improvise, or play the lead
again until it fades out.

Well, enjoy, and rock on! :)

Intro/lead 1 (0:01, 2:48, 4:00)
e|-----------------------10b12------10b12-----8b10-------8b10------------------|
B|----------------------------10--------10--------12--------12-----------------|
G|------------------------------10--------10--------10--------10---------------|
D|-----------------------------------------------------12----------------------|
A|-----(light pick slide)------------------------------------------------------|
D|-----------------------------------------------------------------------------|

e|---------------------------------------------------------------------------|
B|---12-10-------------------------------------------10----------------------|
G|---------10--------------------------9-10-9h10h12--------------------------|
D|-------------12\9~---------9--10-12----------------------------------------|
A|------------------------12-------------------------------------------------|
D|---------------------------------------------------------------------------|

Verse (0:39, 1:51)
e|---------------------------------------------------------------------------|
B|-3---------3---2-----------------------------------------------------------|
G|-2----7----3---2-----------------------------------------------------------|
D|-0----5----1---0-----------------------------------------------------------|
A|-0----5--------------------------------------------------------------------|
D|-0----5--------------------------------------------------------------------|

Chorus(1:08, 2:19, 3:02, 3:31, 4:00)
e|---------------------------------------------------------------------------|
B|-3-------------------------------------------------------------------------|
G|-2--7--2--3--2-------------------------------------------------------------|
D|-0--5--2--3--2-------------------------------------------------------------|
A|-0--5--0--1--0-------------------------------------------------------------|
D|-0--5----------------------------------------------------------------------|

Lead #2/Solo (1:36)
e|---------------------------------------10--12--13--10----------------------|
B|-----------------------------------10--------------------------------------|
G|-10--9--10--------10--9--10/12-12------------------------------------------|
D|------------8--------------------------------------------------------------|
A|---------------------------------------------------------------------------|
D|---------------------------------------------------------------------------|

| /  slide up
| \  slide down
| h  hammer-on
| p  pull-off
| ~  vibrato
| +  harmonic
| x  Mute note
===============================================================================
Tap to rate this tab
# A B C D E F G H I J K L M N O P Q R S T U V W X Y Z