Song name
# A B C D E F G H I J K L M N O P Q R S T U V W X Y Z

Seether - Out Of My Way tab

Tuning : drop Db

wicket song... my first tab so go easy on me
any comments on this tab josh_gosse45@hotmail.com

.=P.M.

(Intro)
Eb-----------------------------------|
Bb-----------------------------------|
Gb-11(tremolo picking )--------------|
Db-----------------------------------|
Ab-----------------------------------|
Db-----------------------------------|

Eb -----------------------------------------------------------|
Bb -----------------------------------------------------------|
Gb -----------------------------------------------------------|
Db -4/7-7--xxx--7/9-9--xxx--12\11-11--xxx--11\9-9--xxx--------|
Ab -4/7-7--xxx--7/9-9--xxx--12\11-11--xxx--11\9-9--xxx--------|
Db -4/7-7--xxx--7/9-9--xxx--12\11-11--xxx--11\9-9--xxx--------|

(Vers)
Eb-----------------------------|
Bb-----------------------------|
Gb-----------------------------|
Db-----------------------------|
Ab-------5--2------------------|
Db-4--7------------------------|

(Pre-Chours)
Eb-------------------------------|
Bb-------------------------------|
Gb-------------------------------|
Db-------------------------------|
Ab-------------555-55222-4-------|
Db-444-44777-77----------4-------|
  ... ..... ..... .....

(Chours)
Eb---------------------------------|
Bb---------------------------------|
Gb---------------------------------|
Db-4444-9999-777-7777-44-----------|
Ab-4444-9999-777-7777-44-----------|
Db-4444-9999-777-7777-44-----------|
            ...    .

(Interlude Or Bridge)
Eb----------------------------|
Bb----------------------------|
Gb----------------------------|
Db-44-474-2-------------------|
Ab-44-474-2-------------------|
Db-44-474-2-------------------|
  .. ... .

(Bridge)
Eb-----------------------|
Bb-----------------------|
Gb-----------------------|
Db-44-474-2--------------|
Ab-44-474-2--------------|
Db-44-474-2--------------|
 
That's it
Enjoy!
Tap to rate this tab
 
# A B C D E F G H I J K L M N O P Q R S T U V W X Y Z