Guitaretab - guitar tabs
Song name
# A B C D E F G H I J K L M N O P Q R S T U V W X Y Z

Seether - The Gift chords

Highlighted       Show chord diagrams
Rhythm
 step down to Eb
Am            G            F
Hold me now I need to feel relief
Am           G          F
Like I never wanted anything
Am             G                    F
I suppose I'll let this go and find a reason I'll hold on to
Am     G          F
I'm so ashamed of defeat
G              Am        F
And I'm out of reason to believe in me
G          Am            F
I'm out of trying to get by

C      G             F
I'm so afraid of the gift you give me
Am        G                     F
I don't belong here and I'm not well
C       G             F
I'm so ashamed of the lie I'm living
Am               G                F
I'm right on the wrong side of it all

I can't face myself when I wake up
And look inside a mirror
I'm so ashamed of that thing
I suppose I'll let it go
'till I have something more to say for me
I'm so afraid of defeat
And I'm out of reason to believe in me
I'm out of trying to defy
I'm so afraid of the gift you give me
I don't belong here and I'm not well
I'm so ashamed of the lie I'm living
I'm right on the wrong side of it all
Am            G            F
Hold me now I need to feel complete
Am             G           F
Like I matter to the one I need

I'm so afraid of the gift you give me
I don't belong here and I'm not well
I'm so ashamed of the lie I'm living
I'm right on the wrong side of it all
 
Lead
Drop Db and tune rest of guitar  step down
INTRO
|-----------------------------------------------------------------------------0--|
|-----------------------------------------------------------------------------0--|
|------5----------4----------2-2----------------5----------4----------2-2--------|
|----7---7------5---5------3-----5-3---5-3----7---7------5---5------3-----5-3----|
|--7-------7--5-------5--3-----------3------7-------7--5-------5--3--------------|
|--------------------------------------------------------------------------------|

INTRO after playing 1 riff above
|----/7----------------------|x2
|--------8~-----5------------|
|------------------55-s-8---|
|--6--------------------------|
|------------6----------------|
|-----------------------------|

VERSE
|------|x4
|------|
|--4~--|
|--5~--|
!--5~--|
|------|

PRE-CHORUS 
|-------------------------|x2
|--13----------13---------|
|----10-12-10-9---10-12b--|
|-------------------------|
|-------------------------|
|-------------------------|
[ Tab from: http://www.guitaretab.com/s/seether/295448.html ]
CHORUS 
|-------------------------------------------------------------------------------------------|
|--13----------------8----------------------------------------------------------------------|
|--12----------------7-----------------------12-12-12-12s10-10-10-10-9s9-9-9-9-9s7-7-7-7-7--|
|--10----------------5----------------------------------------------------------------------|
|--10----------------5-----------------------10-10-10-10s9-9-9-9-9-9s7-7-7-7-7-7s5-5-5-5-5--|
|--10----------------5----------------------------------------------------------------------|
(chorus continued)
|---------------------------------------------------------------------------------|
|--10---------------8-----------------------6-6-6-6-6s8-8-8-8-8s10-10-10-10-10s11-|
|--9----------------7-------------------------------------------------------------|
|--7----------------5-----------------------3-3-3-3-3s5-5-5-5-5s7--7--7--7--7s-8--|
|--7----------------5-------------------------------------------------------------|
|--7----------------5-------------------------------------------------------------|

(chorus continued)
|-------------------------------------------------------------------------------------------|
|--13----------------8----------------------------------------------------------------------|
|--12----------------7-----------------------12-12-12-12s10-10-10-10-9s9-9-9-9-9s7-7-7-7-7--|
|--10----------------5----------------------------------------------------------------------|
|--10----------------5-----------------------10-10-10-10s9-9-9-9-9-9s7-7-7-7-7-7s5-5-5-5-5--|
|--10----------------5----------------------------------------------------------------------|

(chorus continued)
|---------------------------------------------------------------------------------|
|--10---------------8-----------------------6-6-6-6-6s8-8-8-8-8s10-10-10-10-10s11-|
|--9----------------7-------------------------------------------------------------|
|--7----------------5-----------------------3-3-3-3-3s5-5-5-5-5s7--7--7--7--7s-8--|
|--7----------------5-------------------------------------------------------------|
|--7----------------5-------------------------------------------------------------|

POST-CHORUS 
|----/7----------------------|x2
|--------8~-----5------------|
|------------------55-s-8---|
|--6--------------------------|
|------------6----------------|
|-----------------------------|


SOLO 
|---------------------------------------------------|
|--13-----------------------------------------------|
|----10-12-10-9-10-9------------------12------------|
|--------------------12-10-12p-10-12b---10h12p10----|
|---------------------------------------------------|
|---------------------------------------------------|

VERSE 
|-----------------------------------------------------------------------------0--|
|-----------------------------------------------------------------------------0--|
|------5----------4----------2-2----------------5----------4----------2-2--------|
|----7---7------5---5------3-----5-3---5-3----7---7------5---5------3-----5-3----|
|--7-------7--5-------5--3-----------3------7-------7--5-------5--3--------------|
|--------------------------------------------------------------------------------|

OUTRO 
|---------------------------------------------------|
|--13-----------------------------------------------|
|----10-12-10-9-10-9------------------12------------|
|--------------------12-10-12p-10-12b---10h12p10----|
|---------------------------------------------------|
|---------------------------------------------------|

(outro continued)
|---------------------------------------------------|
|--13-----------------------------------------------|
|----10-12-10-9-10-9------------------12------------|
|--------------------12-10-12p-10-12b---10h12p10----|
|---------------------------------------------------|
|---------------------------------------------------|

---ORDER---
Intro
Verse
Pre-chorus
Chorus
Post-chorus
Verse
Pre-chorus
Chorus
Solo
Verse
Chorus
Outro
Related for The Gift chords
The Gift chords by Seether