Song name
# A B C D E F G H I J K L M N O P Q R S T U V W X Y Z

Seether - Pass Slowly tab

-----------------------------------------------------------------------------
              Pass Slowly (not the acoustic version) - Seether
-----------------------------------------------------------------------------
Tabbed by: Kenny Ketcham

Tuning: Drop C

This is not the acoustic version, this is tabbed from me listening to the song that is 
on the album.

Starts by positioning your fingers as if you were to play a C chord on an acoustic 
guitar. Then almost like an Am on an acoustic. Then like
an F chord on an acoustic. If you start with your fingers in those
positions for the first three parts, you will be in the right area.
d|-------------------------------------------1----0-------------------------|
a|----1--0-------------3--1-----------------------------3--------------3----|
f|-----------0-------0---0--0----2-0--------2---2----2----2-----0-2-0--0----|
c|--2---2---2--2----2-2---2--2-------2-----3-3---3-----3---3---0-0---0-0----|
g|-3-3---3---3--3-----------------------------------------------------------|
c|--------------------------------------------------------------------------|

The chorus sounds to me like these simple power chords....
d|---------------------------------------------------------------------------|
a|---------------------------------------------------------------------------|
f|-5------2------------------------------------------------------------------|
c|-5------2-------3------5---------------------------------------------------|
g|-3------0-------3------5---------------------------------------------------|
c|----------------3------5---------------------------------------------------|
Tap to rate this tab
 
# A B C D E F G H I J K L M N O P Q R S T U V W X Y Z