Song name
# A B C D E F G H I J K L M N O P Q R S T U V W X Y Z

Sepultura - Choke tab

CHOKE

from: SEPULTURA
      AGAINST

Tuning C#?

e|------------------------------|
B|------------------------------|
G|------------------------------|
D|------------------------------|
A|------------------------------|
E|--6^0-6^0-6^0-6^0-6^0-6^0-6~--|

e|----------------|
B|----------------|
G|----------------|
D|-------------2--|
A|----------------|
E|--0--1-4--1-----|

e|-----------------|
B|-----------------|
G|-----------------|
D|-----------------|
A|-----------------|
E|--0--3-1--3-1-4--|

e|---------------------|
B|---------------------|
G|---------------------|
D|---------------------|
A|--2--3--6-6-6-6-...--|
E|--0--1--4-4-4-4-...--|

e|-----------------|
B|-----------------|
G|-----------------|
D|-----------------|
A|--2--3-6--3-6-5--|
E|--0--1-4--1-4-3--|

Tabbed by Vogi (vogi@geocities.com).
Tap to rate this tab
# A B C D E F G H I J K L M N O P Q R S T U V W X Y Z