Song name
# A B C D E F G H I J K L M N O P Q R S T U V W X Y Z

Sepultura - Roots Bloody Roots tab

SEPULTURA
Roots Bloody Roots                                         





                                  3x                                    3x
B ||------------------------------||-----------12----------12------12---||
F#||------------------------------||---16--16------16--16------16-------||
D ||*----------------------------*||*----------------------------------*||
A ||*----------------------------*||*----------------------------------*||
E ||------------------------------||------------------------------------||
B ||---0h1-1--1--0h1-1--1--0h1----||------------------------------------||


                              7x                              7x
------------------------------||------------------------------||
------------------------------||------------------------------||
*----------------------------*||*----------------------------*||
*----------------------------*||*----------------------------*||
---2h3-3--3--2h3-3--3--6-4----||------------------------------||
---0h1-1--1--0h1-1--1--4-2----||---0h1-1--1--0h1-1--1--0h1----||


                         3x                              3x
-------------------------||------------------------------||
-------------------------||------------------------------||
*-----------------------*||*----------------------------*||
*-----------------------*||*----------------------------*||
---8----7----5--4----5---||------------------------------||
---6----5----3--2----3---||---0h1-1--1--0h1-1--1--0h1----||


                              7x                              7x
------------------------------||------------------------------||
------------------------------||------------------------------||
*----------------------------*||*----------------------------*||
*----------------------------*||*----------------------------*||
---2h3-3--3--2h3-3--3--6-4----||------------------------------||
---0h1-1--1--0h1-1--1--4-2----||---0h1-1--1--0h1-1--1--0h1----||


                      2x                                                   
----------------------||---------------------------||--------------------||
----------------------||---------------------------||--------------------||
*--------------------*||---------------------------||*------------------*||
*--------------------*||---------------------------||*------------------*||
---2--2---------------||--2--2--------------2-2-2--||--------------------||
---0--0---------------||--0--0--------------0-0-0--||--------------------||


                              9x                         3x
------------------------------||-------------------------||
------------------------------||-------------------------||
*----------------------------*||*-----------------------*||
*----------------------------*||*-----------------------*||
------------------------------||---8----7----5--4----5---||
---0h1-1--1--0h1-1--1--0h1----||---6----5----3--2----3---||


                                                        
---------------------------|---------------------------|
---------------------------|---------------------------|
---------------------------|---------------------------|
--10--------10-------------|--10--------10-------------|
--8---------8---------8----|--8---------8---------8----|
------0--0------0--0-------|------0--0------0--0-------|


                                                        
---------------------------|---------------------------|
---------------------------|---------------------------|
---------------------------|---------------------------|
--10--------10-------------|--10--------10-------------|
--8---------8---------8----|--8---------8---------8----|
------0--0------0--0-------|------0--0------0--0-------|


                                                        
---------------------------|---------------------------|
---------------------------|---------------------------|
---------------------------|---------------------------|
--10--------10-------------|--10--------10-------------|
--8---------8---------8----|--8---------8---------8----|
------0--0------0--0-------|------0--0------0--0-------|


                                                        
---------------------------|---------------------------|
---------------------------|---------------------------|
---------------------------|---------------------------|
--10--------10-------------|--10--------10-------------|
--8---------8---------8----|--8---------8---------8----|
------0--0------0--0-------|------0--0------0--0-------|


                                                                             3x
--------------------------||-------------------------|-----------------------||
--------------------------||-------------------------|-----------------------||
--------------------------||*------------------------|----------------------*||
--------------------------||*------------------------|----------------------*||
--5--4--4--4--4--4--4--4--||---3--2----4--3----3--2--|----4--3----3----3-----||
--3--2--2--2--2--2--2--2--||---1--0----2--1----1--0--|----2--1----1----1-----||


                    7x                          6x                        
--------------------||--------------------------||-----------------------|
--------------------||--------------------------||-----------------------|
*------------------*||*------------------------*||-----------------------|
*------------------*||*------------------------*||-----------------------|
--------------------||---3--3--3--3--3--2-------||--3--3--3--3--3--------|
--------------------||---1--1--1--1--1--0-------||--1--1--1--1--1--------|


        

Tabbed by Ed_Hunter

Tap to rate this tab
# A B C D E F G H I J K L M N O P Q R S T U V W X Y Z