Song name
# A B C D E F G H I J K L M N O P Q R S T U V W X Y Z

Sepultura - Ambush tab

Band - Sepultura
Song - Ambush

Tabbed by: jacobmetal1989
Email: metalupyourass18@hotmail.co.uk

Tuning: Drop D?

quite a few things im not 100% sure about but if you have any corrections
or questions then send me a message.

 Intro
e|-------------------|
B|-------------------|
G|-------------------|
D|--9--9-10-12-10----|
A|--7--7-8--10-8-----| 
E|-------------------|

e|----------------------------------------------------|
B|----------------------------------------------------|
G|----------------------------------------------------| 
D|--9-9-9-10-10-12-10-10-10-12-10-10-12-10-10-12------|
A|--7-7-7-8--8--10-8--8--8--10-8--8--10-8--8--10------|
E|----------------------------------------------------|

 Lead                        1st and 3rd times only
e|---------------------------|---------------|
B|---------------------------|---------------|
G|--/9---9/10/12\10---10/13--|--12--10-------|
D|---------------------------|---------------|
A|--/7---7/8/-10-\8---8/-11--|--10--8--------|
E|---------------------------|---------------|
  
e|----------------------|   |--0---0---0--|
B|----------------------|   |--0---1---0--|
G|----------------------|   |--1---0---0--|
D|----------------------|   |--2---2---0--| Lead
A|--2------3/7-3-3/6-6--|   |--2---3---0--|
E|--0--0-0-1/5-1-1/4-4--|   |--0----------|  
       * *
 Verse Riff
e|----------------------|
B|----------------------|
G|----------------------|
D|----------------------|
A|-2-2---2-4-4-4-3-3-3--|
E|-0-0---0-2-2-2-1-1-1--|
         * * * * * * *
e|------------------------------|
B|------------------------------|
G|------------------------------|
D|------------------------------|
A|------------------------------|
E|-0--0-0-1p0-0--0-0-0-1p0-1/4--|
      * *        * * *
e|------------------------------------------|
B|------------------------------------------|
G|------------------------------------------|
D|-4-4-4---4-4-4--------4-4-4---4-4-4-------|      
A|-2-2-2-3-2-2-2-3--3---2-2-2-3-2-2-2-3--3--|
E|-------1-------1--1---------1-------1--1--|
                                      
e|------------------------------------------|
B|------------------------------------------|
G|------------------------------------------|
D|-4-4-4------------------------------------|
A|-2-2-2-3-3-3-4-4-4-5-5-5-4-4-3-3----------|
E|-------1-1-1-2-2-2-3-3-3-2-2-1-1----------|
Tap to rate this tab
# A B C D E F G H I J K L M N O P Q R S T U V W X Y Z