Guitaretab - guitar tabs
Song name
# A B C D E F G H I J K L M N O P Q R S T U V W X Y Z

Sepultura - Slave New World tab

#----------------------------------PLEASE NOTE---------------------------------#
#This file is the author's own work and represents their interpretation of the #
#song. You may only use this file for private study, scholarship, or research. #
#------------------------------------------------------------------------------#

SLAVE NEW WORLD
As recorded by Sepultura
(From the 1993 Album CHAOS A.D.)

Transcribed by Doetje2
	

Words by Max Cavalera, Evan Seinfeld Music by Max Cavalera, Andreas Kisser, Igor
Cavalera, Paulo Xisto Pinto Junior

E5
0 2 x x x x
	
F#5
2 4 x x x x
	
G5
3 5 x x x x
	
Bb5
6 8 x x x x

F5
1 3 x x x x
	
G#5
4 6 x x x x

Gtr I (D G C F A D) - 'Gtr.1'
Gtr II (D G C F A D) - 'Gtr.2'
Gtr III (D G C F A D) - 'Gtr.3 Solo guitar'
Gtr IV (D G C F A D) - 'Gtr.4 Solo guitar'

  Moderate Rock Q=124
  E5                                                 E5   F#5    G5
 4/4
  Gtr I
  W           +W          +W           +W            H    H      W
  |            |           |            |            |    |      |
  /            /           /            /            /    /      /

  Gtr II
  H    H       W           H    H       W            H    H      W
|-----------|-----------|------------|-----------||------------|-------||
|-----------|-----------|------------|-----------||o-----------|------o||
|-----------|-----------|------------|-----------||------------|-------||
|-----------|-----------|------------|-----------||------------|-------||
|-2----4----|--5--------|--2----4----|--5--------||o-2----4----|-5----o||
|-0----2----|--3--------|--0----2----|--3--------||--0----2----|-3-----||


  Faster Q=188
  E5                N.C.        B5Bb5 N.C.                          B5Bb5
  Q   Q   H         W                 W                 W
  |
  /

  PM--------------------------|       PM--------------------------|
  E E E E E E E E   E E E E E E E E   E E E E E E E E   E E E E E E E E
|-----------------|-----------------|-----------------|-----------------|
|-----------------|-----------------|-----------------|-----------------|
|-----------------|-----------------|-----------------|-----------------|
|-----------------|-----------------|-----------------|-----------------|
|-----------------|-------------9s8-|-----------------|-------------9s8-|
|-0-0-0-0-0-0-0-0-|-0-0-0-0-0-0-7s6-|-0-0-0-0-0-0-0-0-|-0-0-0-0-0-0-7s6-|


    N.C.                          B5Bb5
    Gtrs I, II
    PM--------------------------|
    E E E E E E E E   E E E E E E E E  4x
||------------------|------------------||
||o-----------------|-----------------o||
||------------------|------------------||
||------------------|------------------||
||o-----------------|-------------9s8-o||
||--0-0-0-0-0-0-0-0-|-0-0-0-0-0-0-7s6--||


    E5   F#5    G5         E5   G5         Bb5
    H    H      W          H    Q.   +E    W
||------------|----------|---------------|-------||
||o-----------|----------|---------------|------o||
||------------|----------|---------------|-------||
||------------|----------|---------------|-------||
||o-2----4----|-5--------|-2----5----(5)S|=8----o||
||--0----2----|-3--------|-0----3----(3)S|=6-----||


    N.C.                          B5Bb5
    Gtrs I, II
    PM--------------------------|
    E E E E E E E E   E E E E E E E E  4x
||------------------|------------------||
||o-----------------|-----------------o||
||------------------|------------------||
||------------------|------------------||
||o-----------------|-------------9s8-o||
||--0-0-0-0-0-0-0-0-|-0-0-0-0-0-0-7s6--||


                         Half Time Q=94
    E5 F5 G#5E           F5
    Gtr I
             PM----|
    Q  Q  Q  S S S S  3x W          +W
||--------------------||----------|--------||
||o------------------o||----------|--------||
||--------------------||----------|--------||
||--------------------||----------|--------||
||o-2--3--6----------o||-3--------|-(3)----||
||--0--1--4--0-0-0-0--||-1--------|-(1)----||


    N.C.F5 N.C.  N.C.F5 N.C.          N.C.
    Gtr I
               ~            ~                    ~            ~
    S S E  S S E S S E  S S E         S S E  S S E S S E  S S E
||-----------------------------||-||-----------------------------||
||o---------------------------o||-||o---------------------------o||
||-----------------------------||-||-----------------------------||
||---------2h3-3--------2h3-3--||-||---------2h3-3--------2h3-3--||
||o---------------------------o||-||o---------------------------o||
||--0h1-1--------0h1-1---------||-||--0h1-1--------0h1-1---------||
|
|   Gtr II
|                                         ~~           ~~
|   S S Q.       S S Q.               S S Q.       S S Q.
||-----------------------------||-||-----------------------------||
||o---------------------------o||-||o---------------------------o||
||-----------------------------||-||-----------------------------||
||-----------------------------||-||-----------------------------||
||o-----3------------3--------o||-||o---------------------------o||
||--0h1-1--------0h1-1---------||-||--0h1-1--------0h1-1---------||


    N.C.F5N.C.F5N.C.F5N.C.F5  E5
    Gtrs I, II
    S S E S S E S S E S S E   W     4x
||--------------------------|-------||
||o-------------------------|------o||
||--------------------------|-------||
||--------------------------|-------||
||o-----3-----3-----3-----3-|-2----o||
||--0h1-1-0h1-1-0h1-1-0h1-1-|-0-----||


    E5F5G#N.C.E5F5G#N.C.  E5F5G#N.C.
          PM|       PM|         PM----------------|
    E E E S S E E E S S   E E E S S S S S S S S S S
||----------------------|----------------------------||
||o---------------------|---------------------------o||
||----------------------|----------------------------||
||----------------------|----------------------------||
||o-2-3-6-----2-3-6-----|-2-3-6---------------------o||
||--0-1-4-0-0-0-1-4-0-0-|-0-1-4-0-0-0-0-0-0-0-0-0-0--||


    E5F5    E5F5    E5F5    E5F5      E5
    S  S  E S  S  E S  S  E S  S  E   W     4x
||----------------------------------|-------||
||o---------------------------------|------o||
||----------------------------------|-------||
||--9-10-10-9-10-10-9-10-10-9-10-10-|-9-----||
||o-7--8--8-7--8--8-7--8--8-7--8--8-|-7----o||
||----------------------------------|-------||


  F E5
  Gtr II
  S S E   Q      H              H            Q     E  E
  | |                                                 |
  o /                                                 x

  Gtr I
  PM    PM       PM  PM         PM  PM       PM  PM
  S E   S E  E   S E S E  E     S E S E  E   S E S E  E
|-----------------------------|---------------------------|
|-----------------------------|---------------------------|
|-----------------------------|---------------------------|
|-----------------------------|---------------------------|
|-----------------------------|---------------------------|
|-1-0---0-0-(3)/-0-0-0-0-(3)/-|-0-0-0-0-(3)/-0-0-0-0-(3)/-|


    E5
    W
    Gtrs I, II
    PM  PM       PM  PM
    S E S E  E   S E S E  E    4x
||-----------------------------||
||o---------------------------o||
||-----------------------------||
||-----------------------------||
||o---2---2--------2---2------o||
||--0-0-0-0-(3)/-0-0-0-0-(3)/--||


 Guitar Solo
  Gtr III
  TP        TP   TP      TP        TP        TP    TP     TP
  Q.        E   +Q       Q         Q.        E    +Q      Q
|-------------------------------|--------------------------------|
|-------------------------------|--------------------------------|
|-8---------9---(9)S====11------|-12--------11---(11)S====9------|
|-------------------------------|--------------------------------|
|-6---------7---(7)S=====9------|-10---------9----(9)S====7------|
|-------------------------------|--------------------------------|
|
| Gtrs I, II
| PM   PM        PM   PM           PM   PM         PM   PM
| S  E S E  E    S  E S  E  E      S  E S E  E     S  E S E  E
|-------------------------------|--------------------------------|
|-------------------------------|--------------------------------|
|-------------------------------|--------------------------------|
|-------------------------------|--------------------------------|
|----2---2----------2----2------|-----2---2-----------2---2------|
|-0--0-0-0-(3)/--0--0-0--0-(3)/-|--0--0-0-0-(3)/---0--0-0-0-(3)/-|


    TP        TP    TP      TP        TP        TP    TP
    Q.        E    +Q       Q         Q.        E    +Q       E   E
|-/11--------12---(12)S====14------|-15--------14---(14)---------------|
|----------------------------------|------------------------------xS===|
|--/8---------9----(9)S====11------|-12--------11---(11)-----11\--xS===|
|----------------------------------|-----------------------------------|
|----------------------------------|-----------------------------------|
|----------------------------------|-----------------------------------|
|
|   PM   PM         PM   PM           PM   PM         PM   PM
|   S  E S E  E     S  E S  E  E      S  E S E  E     S  E S  E   E
|----------------------------------|-----------------------------------|
|----------------------------------|-----------------------------------|
|----------------------------------|-----------------------------------|
|----------------------------------|-----------------------------------|
|------2---2-----------2----2------|-----2---2-----------2----2--------|
|---0--0-0-0-(3)/---0--0-0--0-(3)/-|--0--0-0-0-(3)/---0--0-0--0--(3)/--|

[ Tab from: http://www.guitaretab.com/s/sepultura/17056.html ]
  Gtrs III, IV
  S S S S E  S  S  S   S  S  S  S S S S
|---------------------------------------|
|-7s8-8s7-7S10s11-11s=10-10s11-11s8-8s7-|
|-8s9-9s8-8S11s12-12s=11-11s12-12s9-9s8-|
|---------------------------------------|
|---------------------------------------|
|---------------------------------------|
|
| PM    PM   PM-------|         PM|
| S E   S E  S  S +S   S  E     S S E
|---------------------------------------|
|---------------------------------------|
|---------------------------------------|
|---------------------------------------|
|---2-----2---------------2---------2---|
|-0-0---0-0--0--0-(0)--0--0-----0-0-0---|


  S S S S E  S  S  S   S  S  S  S  S  E
|----------------------------------------|
|-7s8-8s7-7S10s11-11s=10-10s11-11-11-11S=|
|-8s9-9s8-8S11s12-12s=11-11s12-12-12-12S=|
|----------------------------------------|
|----------------------------------------|
|----------------------------------------|
|
| PM    PM   PM-------|         PM|
| S E   S E  S  S +S   S  E     S  S  E
|----------------------------------------|
|----------------------------------------|
|----------------------------------------|
|----------------------------------------|
|---2-----2---------------2-----------2--|
|-0-0---0-0--0--0-(0)--0--0-----0--0--0--|


  S S S S E  S  S  S   S  S  S  S S S S
|---------------------------------------|
|-7s8-8s7-7S10s11-11s=10-10s11-11s8-8s7-|
|-8s9-9s8-8S11s12-12s=11-11s12-12s9-9s8-|
|---------------------------------------|
|---------------------------------------|
|---------------------------------------|
|
| PM    PM   PM-------|         PM|
| S E   S E  S  S +S   S  E     S S E
|---------------------------------------|
|---------------------------------------|
|---------------------------------------|
|---------------------------------------|
|---2-----2---------------2---------2---|
|-0-0---0-0--0--0-(0)--0--0-----0-0-0---|


  S S S S E E    S   S  S  S  S  S  E
|----------------------22-22-22-22-22\-||
|-7s8-8s7------------------------------||
|-8s9-9s8-8S5S==21--21-----------------||
|--------------------------------------||
|--------------------------------------||
|--------------------------------------||
|
| PM    PM  PM------|         PM|
| S E   S E S S +S   S  E     S  S  E
|--------------------------------------||
|--------------------------------------||
|--------------------------------------||
|--------------------------------------||
|---2-----2-------------2-----------2--||
|-0-0---0-0-0-0-(0)--0--0-----0--0--0--||


    Tempo I Q=188
    N.C.                          B5Bb5
    Gtrs I, II
    PM--------------------------|
    E E E E E E E E   E E E E E E E E  4x
||------------------|------------------||
||o-----------------|-----------------o||
||------------------|------------------||
||------------------|------------------||
||o-----------------|-------------9s8-o||
||--0-0-0-0-0-0-0-0-|-0-0-0-0-0-0-7s6--||


  N.C.                                           B5Bb5
  Gtr III
   E  Q.      +E   Q.         E  Q    E  +H
|--------------------------|-------------------------|
|----11------(11)-11-------|----11---11-(11)---------|
|-12-----------------------|-12----------------------|
|--------------------------|-------------------------|
|--------------------------|-------------------------|
|--------------------------|-------------------------|
|
| Gtr IV
|  E  Q    E  +Q       Q      E  Q    E  +E   Q.
|----------9--(9)----------|----------9--(9)---------|
|----11---------------11---|----11-----------11------|
|-12-----------------------|-12----------------------|
|--------------------------|-------------------------|
|--------------------------|-------------------------|
|--------------------------|-------------------------|
|
| Gtrs I, II
|  PM----------------------------------------|
|  E  E  E E   E   E   E E    E  E E  E   E   E  E E
|--------------------------|-------------------------|
|--------------------------|-------------------------|
|--------------------------|-------------------------|
|--------------------------|-------------------------|
|--------------------------|---------------------9s8-|
|--0--0--0-0---0---0---0-0-|--0--0-0--0---0---0--7s6-|


  N.C.                                      B5Bb5
   Q     H          Q     +Q     Q    H
|-------------------9---|-(9)----9--------------|
|-------11--------------|------------11---------|
|-12--------------------|-----------------------|
|-----------------------|-----------------------|
|-----------------------|-----------------------|
|-----------------------|-----------------------|
|
|  E  Q    E +Q     Q      E   Q   E +E   E Q
|----------9-(9)--------|----------9-(9)----9---|
|----11------------11---|-----11---------11-----|
|-12--------------------|-12--------------------|
|-----------------------|-----------------------|
|-----------------------|-----------------------|
|-----------------------|-----------------------|
|
|  PM------------------------------------|
|  E  E  E E  E  E  E E    E   E E E  E   E E E
|-----------------------|-----------------------|
|-----------------------|-----------------------|
|-----------------------|-----------------------|
|-----------------------|-----------------------|
|-----------------------|-------------------9s8-|
|--0--0--0-0--0--0--0-0-|--0---0-0-0--0---0-7s6-|


  N.C.                                        B5 Bb5
                           ~~~
   E  Q   E +E   Q.        H.                  Q
|---------9-(9)---------|----------------------9---|
|----11---------11------|---------------------11---|
|-12--------------------|-12-----------------------|
|-----------------------|--------------------------|
|-----------------------|--------------------------|
|-----------------------|--------------------------|
|
|  E  Q   E +E   Q.        Q     E  E  +E   E  Q
|---------9-(9)---------|--------------------------|
|----11---------11------|-------11-11-(11)-11-11---|
|-12--------------------|-12-----------------------|
|-----------------------|--------------------------|
|-----------------------|--------------------------|
|-----------------------|--------------------------|
|
|  PM--------------------------------------|
|  E  E E E  E   E  E E    E  E  E  E   E   E  E E
|-----------------------|--------------------------|
|-----------------------|--------------------------|
|-----------------------|--------------------------|
|-----------------------|--------------------------|
|-----------------------|----------------------9s8-|
|--0--0-0-0--0---0--0-0-|--0--0--0--0---0---0--7s6-|


  N.C.                                       B5 Bb5 E5 F5 G#5
                                                    Gtrs I, II
   E  Q   E +E   Q.        E   Q    E +E   E  Q     Q  Q  Q  Q
|---------9-(9)---------|-----------9-(9)---------|-------------*|
|----11---------11------|-----11----------11-11---|-------------*|
|-12--------------------|-12--------------12-12---|-------------*|
|-----------------------|-------------------------|-------------*|
|-----------------------|-------------------------|-2--3--6-----*|
|-----------------------|-------------------------|-0--1--4-----*|
|
|                          ~~~
|  E  Q   E +E   Q.        Q.       E  E   E  Q     W
|---------9-(9)---------|-----------9--9---9--9---|-------------*|
|----11---------11------|----------11-11--11-11---|-------------*|
|-12--------------------|-12----------------------|-------------*|
|-----------------------|-------------------------|-------------*|
|-----------------------|-------------------------|-------------*|
|-----------------------|-------------------------|-------------*|
|
|  PM-------------------------------------|
|  E  E E E  E   E  E E    E   E E  E  E   E  E E   W
|-----------------------|-------------------------|-------------*|
|-----------------------|-------------------------|-------------*|
|-----------------------|-------------------------|-------------*|
|-----------------------|-------------------------|-------------*|
|-----------------------|---------------------9s8-|-------------*|
|--0--0-0-0--0---0--0-0-|--0---0-0--0--0---0--7s6-|-------------*|



Duration Legend
---------------
W - whole; H - half; Q - quarter; E - 8th; S - 16th; T - 32nd; X - 64th; a - acciaccatura
+ - note tied to previous; . - note dotted; .. - note double dotted
Uncapitalized letters represent notes that are staccato (1/2 duration)
Irregular groupings are notated above the duration line
Duration letters will always appear directly above the note/fret number it represents the
duration for.  Duration letters with no fret number below them represent rests.  Multi-
bar rests are notated in the form Wxn, where n is the number of bars to rest for.  Low
melody durations appear below the staff

Tablature Legend
----------------
 h   - hammer-on
 p   - pull-off
 b   - bend
 pb  - pre-bend
 r   - bend release (if no number after the r, then release immediately)
 /\  - slide into or out of (from/to "nowhere")
 s   - legato slide
 S   - shift slide
 - natural harmonic
[n]  - artificial harmonic
n(n) - tapped harmonic
 ~   - vibrato
 tr  - trill
 T   - tap
 TP  - trem. picking
 PM  - palm muting
\n/  - tremolo bar dip; n = amount to dip
 \n  - tremolo bar down
 n/  - tremolo bar up
/n\  - tremolo bar inverted dip
 =   - hold bend; also acts as connecting device for hammers/pulls
 <> - volume swell (louder/softer)
 x   - on rhythm slash represents muted slash
 o   - on rhythm slash represents single note slash

Misc Legend
-----------
 |  - bar
||  - double bar
||o - repeat start
o|| - repeat end
*|  - double bar (ending)
 :  - bar (freetime)
 $  - Segno
 &  - Coda
Tempo markers -  = BPM(8/16=s8/s16), where s8 = swing 8ths, s16 = swing 16ths

Related for Slave New World tab
Slave New World chords by Sepultura