Song name
# A B C D E F G H I J K L M N O P Q R S T U V W X Y Z

Sepultura - Mountain Song tab

-------------------------------------------------------------------------------
	 Mountain song (cover Jane´s Adiction) - Sepultura
-------------------------------------------------------------------------------
Tabbed by:Caranokol			

Tuning:standard
   
                   verse
            
e|--------------------------------------------------------|
B|--------------------------------------------------------|
G|--------------------------------------------------------|
D|--5/7--7-7---10/7---7---5/7---xxxx-------(x7)-----------|
A|--3/5--5-5---8-/5---5---3/5---xxxx----------------------|
E|--------------------------------------------------------|


                    pre-chorus
e|------------------------------------------------------------------------|
B|------------------------------------------------------------------------|
G|--5---------------------------------5-----------------------------------|
D|--5-----33--2-----------------------5---33--2----5-/--6-----------------|
A|--3---------------------------------3------------3-/--4-----------------|
E|------------------/6---6-6p5--3-----------------------------------------|

                chorus

e|------------------------------------------------------------------------|
B|------------------------------------------------------------------------|
G|------------------------------------------------------------------------|
D|--5/7--7-7---10/7---7---5/7---xxxx-------(x7)---------------------------|
A|--3/5--5-5---8-/5---5---3/5---xxxx--------------------------------------|
E|------------------------------------------------------------------------|

e|-------------------------------------------------------------------------|
B|-------------------------------------------------------------------------|
G|--5---------------------------------5------------------------------------|
D|--5-----33--2-----------------------5---33--2----5-/--6------------------|
A|--3---------------------------------3------------3-/--4------------------|
E|------------------/6---6-6p5--3------------------------------------------|


e|---------------------------------------|
B|---------------------------------------|
G|-----7----7--------7-------------------|
D|-----7----7--------7-------------------|
A|-----5----5--------5-------------------|
E|---------------------------------------|

e|--------------------------------------|
B|--------------------------------------|
G|--------------------------------------|
D|---5/7--------(x7)--------------------|
A|---3/5--------------------------------|
E|--------------------------------------|


e|-----------------------------------------------------------|
B|-----------------------------------------------------------|
G|--5---------------------------------5----------------------|
D|--5-----33--2-----------------------5---33--2----5-/--6----|
A|--3---------------------------------3------------3-/--4----|
E|------------------/6---6-6p5--3----------------------------|


e|--------------------------------------------------|
B|--------------------------------------------------|
G|--------------------------------------------------|
D|--5/7--7-7---10/7---7---5/7---xxxx-------(x7)-----|
A|--3/5--5-5---8-/5---5---3/5---xxxx----------------|
E|--------------------------------------------------|

e|-----------------------------------------------------------|
B|-----------------------------------------------------------|
G|--5---------------------------------5----------------------|
D|--5-----33--2-----------------------5---33--2----5-/--6----|
A|--3---------------------------------3------------3-/--4----|
E|------------------/6---6-6p5--3----------------------------|

         
     guitar II -solo-
                    
e|----------------------------------------------------------|
B|----------------------------------------------------------|
G|----------------------------------------------------------|
D|--5/7--7-7---10/7---7---5/7---xxxx-------(x7)-------------|
A|--3/5--5-5---8-/5---5---3/5---xxxx------------------------|
E|----------------------------------------------------------|

e|--------------------------------------------------------------|
B|--------------------------------------------------------------|
G|--5---------------------------------5-------------------------|
D|--5-----33--2-----------------------5---33--2----5-/--6-------|
A|--3---------------------------------3------------3-/--4-------|
E|------------------/6---6-6p5--3-------------------------------|

e|------------------------------------------------------------|
B|------------------------------------------------------------|
G|------------------------------------------------------------|
D|--5/7---10/7------5/7----5/7------(x7)----------------------|
A|--3/5---8/5-------3/5----3/5--------------------------------|
E|------------------------------------------------------------|

e|-----------------------------------------------------------|
B|-----------------------------------------------------------|
G|--5---------------------------------5----------------------|
D|--5-----33--2-----------------------5---33--2----5-/--6----|
A|--3---------------------------------3------------3-/--4----|
E|------------------/6---6-6p5--3----------------------------|

e|---------------------------|
B|---------------------------|
G|---------------------------|
D|--5/7---10/7------5/7------|
A|--3/5---8/5-------3/5---END|
E|---------------------------|

                       
| /  slide up
| \  slide down
| h  hammer-on
| p  pull-off
| ~  vibrato
| +  harmonic
| x  Mute note
===============
Tap to rate this tab
# A B C D E F G H I J K L M N O P Q R S T U V W X Y Z