Song name
# A B C D E F G H I J K L M N O P Q R S T U V W X Y Z

Seraphs Coal - No Hero tab

Help us improve GuitareTab! Take a short survey!
-------------------------|
-------*UPDATED*---------|
-------------------------|

Seraphs Coal - No Hero

Tabed by Aaron Haugh.

This song is off their first album - Dont mind if i dont.
If you play along with the cd you'll find it way easyer to understand.
Mute notes with x next to them.
NOTE: Most of the mini solo things are viberatos

Intro

E --------------------------------------------|
a --------------------------------------------|
d --------------------------------------------|
g ---4-6-7---6-4--4-6-7-----------------------|
b ---------3------------5-3-2-----------------|
e --------------------------------------------|

Bb F# G G# X4
G A D C# Bb
G A F#
G A D C# Bb
G A

E --------------------------------------------|
a --------------------------------------------|
d --------------------------------------------|
g --4-6-7---6-4--4-6-7---6--------------------|
b --------3------------3----------------------|
e --------------------------------------------|

E --------------------------------------------|
a --------------------------------------------|
d --------------------------------------------|
g --4-6-7---6-4--4-6-7------------------------|
b --------3------------5-3-2------------------|
e --------------------------------------------|

Bb F# G A X4
G A D C# Bb
G A F#
G A D C# Bb
G A

Bb F# G D A D E*

E --------------------------------------------------|
a --------------------------------------------------|
d --------------------------------------------------|
g -2-4-2-7---6-7-4--2-7-6-9-7-11-11-9-7-9-7-6-4-----|
b ---------5----------------------------------------|
e --------------------------------------------------|

Bb
Bbx Gx Ax E*x X2

Bb G A E*

E --------------------------------------------------|
a --------------------------------------------------|
d --------------------------------------------------|
g --7-6--7-6-2-4--7-6--7-6-7-----9---7-6-4----------|
b ---------------------------5-3---7----------------|
e --------------------------------------------------|
  (Bb G A E*)
E --------------------------------------------|
a --------------------------------------------|
d --------------------------------------------|
g --4-6-7---6-4--4-6-7---6--------------------|
b --------3------------3----------------------|
e --------------------------------------------|
  (C G G# A#)
E --------------------------------------------|
a --------------------------------------------|
d --------------------------------------------|
g --4-6-7---6-4--4-6-7-9-7-6------------------|
b --------3-----------------------------------|
e --------------------------------------------|

E --------------------------------------------|
a --------------------------------------------|
d --------------------------------------------|
g -------------------------4------------------|
b -7-5-3-5-3-2-7-5-3-5-3-2--------------------|
e --------------------------------------------|

Email your comments and questions to: generator_p@hotmail.com
Related for No Hero tab