Song name
# A B C D E F G H I J K L M N O P Q R S T U V W X Y Z

Seraphs Coal - Thirteen tab

Thirteen - Seraphs Coal


Intro 1
 Gtr 1       
-|-------------------------------------------------------------x3-|
-|----------------------------------------------------------------|
-|----------------------------------------------------------------|
-|------------------------------------3---5---6-------5---6---5---|
-|----3---4---3-------3---4---3----44---4---4---4--66---6---6---6-|
-|-44---4---4---4--11---1---1---1---------------------------------|

 Gtr 2 
-|-------------------------|---------------------|
-|-------------------------|---------------------|
-|-------------------------|---------------------|
-|-6-5------6-5------------|-6-5------6-5----6-8-|
-|-----6-r------6-r--6-4-3-|-----6-r------6------|
-|-------------------------|---------------------|

Intro 2
 Gtr 1
-|-------------------------------------------------------------------x2-|------|
-|----------------------------------------------------------------------|------|
-|-12-13-13--12-13-13--12-13-13--15--13---12-13-13--12-13-13--8---13-12-|-13---|
-|-------------------------------------r------------------------r--0----|----r-|
-|-10/11-11--10/11-11--10/11-11--13--11---10/11-11--10/11-11--6---11-10-|-11---|
-|----------------------------------------------------------------------|------|
                                                                              
 Gtr 2                                
-|-----------------x3-|-----|
-|--------------------|-----|
-|-----------6----8---|-----|
-|-6----3----6----8---|-6---|
-|-6----3----4----6---|-6-r-|
-|-4----1-------------|-4---|
                                                                              
Verse
 Both Gtrís 
-|----|---------------------------------------------------|
-|----|---------------------------------------------------|
-|----|-----6----------------------------------6------6---|
-|----|-3---6->-66-6-66-6-66-6-66-6-66-6-66-6--6--3---6->-|
-|----|-3->-4---66-6-66-6-66-6-66-6-66-6-66-6--4--3->-4---|
-|-x\-|-1-------44-4-44-4-44-4-44-4-44-4-44-4-----1-------|
              **   **   **   **   **   **               
                                                    
 Gtr 1 - x2
-|-------x8-|------------------------x2-|
-|----------|---------------------------|
-|-1313--13-|-12-13--1313--13--1313--13-| 
-|----------|---------------------------|  
-|-1111--11-|-10-11--1111--11--1111--11-| 
-|----------|---------------------------|
 
 Gtr 2 
-|-------------------------|
-|-------------------------|
-|---------6-----------6---|
-|-6---3---6->-6---3---6->-|
-|-6->-3->-4---6->-3->-4---|
-|-4---1-------4---1-------|
Chorus
 Gtr 1
-|-----------------------------|-------------|
-|-----------------------------|-------------|
-|-3---6---8-8-8--6-6-6--5-5-5-|-3---6---8---|
-|-3->-6->---------------------|-3->-6->-8->-|
-|-1---4---6-6-6--4-4-4--3-3-3-|-1---4---6---|
-|-----------------------------|-------------|
                                                 Gtr 2
-|----------------------|----------------------|
-|----------------------|----------------------|
-|-3---6----------------|-3---6---8-8--6--5----|
-|-3->-6->-66-6-55-5--3-|-3->-6->-8-8--6--5--6-|
-|-1---4---66-6-55-5--3-|-1---4---6-6--4--3--6-|
-|---------44-4-33-3--1-|--------------------4-|
           **   **                                                           

Solo 
 Gtr 1     
-|-------------------------------------------------------------------|
-|-------------------------------------------------------------------|
-|-------------------------------------------------------------------|
-|-------6-8-8b-8/10\8--6---6/8-------6-8--10-10-8-6--------6-8-6----|
-|---6h8------------------8-----8-6-8----------------8--6-8--------8-|
-|-8-----------------------------------------------------------------|
                                                                              
-|----------------------------------------------|
-|-------------9/11\9----11/13\11----9----8/9-r-|
-|--------8-10--------10----------10---10-------|
-|-6-8-10---------------------------------------|
-|----------------------------------------------|
-|----------------------------------------------|
                                                                              
 Gtr 2               
-|-------------------------------------------------------|
-|-------------------------------------------------------|
-|-----8-------6------------------666-55-6--888-6-5------|
-|-6---8->-3---6->--6-6-6--3-3-3--666-55-6--888-6-5--6---|
-|-6->-6---3->-4----6-6-6--3-3-3--444-33-4--666-4-3--6-r-|
-|-4-------1--------4-4-4--1-1-1---------------------4---|
                                                                              
Verse 

Chorus 2
 Gtr 1                           
-|--------------------------x2-|-------------|
-|-----------------------------|-------------|
-|-3---6---8-8-8--6-6-6--5-5-5-|-3---6---8---|
-|-3->-6->---------------------|-3->-6->-8->-|
-|-1---4---6-6-6--4-4-4--3-3-3-|-1---4---6---|
-|-----------------------------|-------------|

 Gtr 2                  
-|---------------------x2-|-------------|
-|------------------------|-------------|
-|-3---6------------------|-3---6---8---|
-|-3->-6->-66-6-55-5--3---|-3->-6->-8->-|
-|-1---4---66-6-55-5ó-3->-|-1---4---6---|
-|---------44-4-33-3--1---|-------------|
           **   **                         
                                  
Bridge
 Both Gtrís                  
-|-----------------------x3-|-----|
-|--------------------------|-----|
-|----------------------6---|-8---|
-|-33-3-33-3-33-3-33-3--6->-|-8->-|
-|-33-3-33-3-33-3-33-3--4---|-6---|
-|-11-1-11-1-11-1-11-1------|-----|
   **   **   **   **                                                                 

Break - x2
 Gtr 1
-|-----11-9-8------11-9-8-9-8--------------|
-|-9-9--------9-9------------9-9ó-11/13\11-| 
-|-----------------------------------------|
-|-----------------------------------------|
-|-----------------------------------------|
-|-----------------------------------------|

 Gtr 2  (Gtr 2 does this X2,then does extra bit, whilst gtr 1 takes over, X4)
-|-----------------|
-|-----------------| 
-|---------6---8---| 
-|-6---3---6->-8->-|
-|-6->-3->-4---6---|
-|-4---1-----------|

 Gtr 2 ñ extra bit                                        
-|--------------------------------------------------------X1-|
-|-----------------------------------------------------------|
-|--8----13---12---8----13---12---13---12--10---8---10---8---|
-|---->----->---->--->----->---->---->---->--->--->---->--->-|
-|--6----11---10---6----11---10---11---10---8---6----8---6---|
-|-----------------------------------------------------------|
                                                 
-|------------------------------------------------X1-|
-|---------------------------------------------------|
-|--8----13---12---8----13---12---13---12--10---8----|
-|---->----->---->--->----->---->---->---->--->---->-|
-|--6----11---10---6----11---10---11---10---8---6----|
-|---------------------------------------------------|

Outro   
 Gtr 1 does this X2, gtr 2 x1, / then does this X1       \    
-|--------------------------|---------------------------------------|
-|--------------------------|---------------------------------------|
-|----------------------6---|----------------------6----8---6---5---|
-|-33-3-33-3-33-3-33-3--6->-|-33-3-33-3-33-3-33-3--6->---->--->--->-|
-|-33-3-33-3-33-3-33-3--4---|-33-3-33-3-33-3-33-3--4----6---4---3---|
-|-11-1-11-1-11-1-11-1------|-11-1-11-1-11-1-11-1-------------------|
   **   **   **   **          **   **   **   **


Both guitars finish on this          
-|-------------------------------------X1-|
-|----------------------------------------|
-|----------------------6----8------------|
-|-33-3-33-3-33-3-33-3--6->--8->-6-----6--|
-|-33-3-33-3-33-3-33-3--4----6---6-----6--|
-|-11-1-11-1-11-1-11-1-----------4-----4--|
   **   **   **   **                                                                 
Tap to rate this tab
 
# A B C D E F G H I J K L M N O P Q R S T U V W X Y Z