Song name
# A B C D E F G H I J K L M N O P Q R S T U V W X Y Z

Sevendust - Pieces tab

----------------------------------------------------------------------------
			     Pieces - Sevendust
----------------------------------------------------------------------------
Tabbed by:llama_slap
Email:sk84life@adelphia.net

Tuning:Drop B (B F# B E G# C#)

From the new album NEXT, awesome song, great music, buy the CD, nuff said...

TO EVERYONE WHO LOOKS AT THIS TAB: AT LEAST RATE, COMMENT IF YOU PLEASE
i will really appreciate it you guys!

          
INTRO (some effect used, but i figured this out on normal clean
       because i don't have any effects pedals as of now)
Guitar 1
|--------------------------------------------------------------------------|
|--3--3-3-4---3--3-3-4-6---3--3-3-4--5-3--3-3-4-6-//-----------------------|
|--------------------------------------------------------------------------|
|--------------------------------------------------------------------------|
|--------------------------------------------------------------------------|
|--------------------------------------------------------------------------|

Guitar 2 (1's and 2's, not 10's and 20's!)
|------|  |-------|  
|------|  |-------|  
|------|  |-------|  
|------|x1|-------|x9
|------|  |-------|  
|10-020|  |010-020|  
 .. ...    ... ... 

|------------------------------------------------------------|
|------------------------------------------------------------|
|------------------------------------------------------------|
|------------------------------------------------------------|   
|------------------------------------------------------------|
|010-0-1-2-4-20-0-3-4-6-10-020-010-020-010-0-1-2-4-20-0-3-4-6|
 ... .       .. .       .. ... ... ... ... .       .. .

|--------------------------------------------------------------------------|
|--------------------------------------------------------------------------|
|--------------------------------------------------------------------------|
|--------------------------------------------------------------------------|
|--------------------------------------------------------------------------|
|0-1-1-0-1-1-0-1-1-0-1-1-0-3-5-5--0-1-1-0-1-1-0-1-1-0-1-1-0-3-3-3----------|
 . . . . . . . . . . . . . . . .  . . . . . . . . . . . . . . . .

|--------------------------------------------------------------------------|
|--------------------------------------------------------------------------|
|--------------------------------------------------------------------------|
|--------------------------------------------------------------------------|
|--------------------------------------------------------------------------|
|0-1-1-0-1-1-0-1-1-0-3-3-0-3-5-5-(or something like that)------------------|
 . . . . . . . . 
 
VERSE- Guitar 1
|-----------------------------------------------------------------------|
|-----------------------------------------------------------------------|
|-----------------------------------------------------------------------|
|-----------------------------------------------------------------------|x2
|-----------------------------------------------------------(fast)------|
|0-1-1-0-1-1-0-1-1-0-1-1-0-1-55--0-1-1-0-1-1-0-1-1-0-1-1-0-1-3333-------|
 . . . . . . . . . . . . . . ..  . . . . . . . . . . . . . . ....

Fill before Pre Chorus (Guitar 2)
|---------------|
|---------------|
|---------------|
|---------------|
|---------------|
|2-1-2-4-4-4----|

PRE CHORUS- Guitar 1 & 2 (Play twice; 10's and 12's)
|---------------------------------------|
|---------------------------------------|
|---------------------------------------|
|---------------------------------------|
|---------------------------------------|
|0-10-12-0-10-12-0-10-12-0-10-12-0-9-10-|

|---------------------------------------|
|---------------------------------------|
|---------------------------------------|
|---------------------------------------|
|---------------------------------------|
|0-10-12-0-10-12-0-8-10-0-10-12-0-8888--|

CHORUS
|--------------------------------------------------------------------------|
|--------------------------------------------------------------------------|
|-------------------------------------------------------------7/8/7/8------|
|000-0-00-00--0-0000-0-00-00--0-0000-0-00-00--0-0000-0-00-000-x-x-x-x------|
|000-0-00-00--0-0000-0-00-00--0-0000-0-00-00--0-0000-0-00-000-5/6/5/6------|
|000-0-00-00--0-0000-0-00-00--0-0000-0-00-00--0-0000-0-00-000--------------|

|------------------------------------------------------------|
|------------------------------------------------------------|
|------------7/8/7/8-------------7/8/7/8-------------7/8/7/8-|
|------------x-x-x-x-------------x-x-x-x-------------x-x-x-x-|
|000-0-00-00-5/6/5/6-000-0-00-00-5/6/5/6-000-0-00-00-5/6/5/6-|
|000-0-00-00---------000-0-00-00---------000-0-00-00---------|
 ... . .. ..         ... . .. ..         ... . .. ..         

|----------------------|
|----------------------|
|------------7/8/7///--|
|------------x-x-x-----|
|000-0-00-00-5/6/5///--|
|000-0-00-00-----------|
 ... . .. ..         

BRIDGE(1's and 0's, not 10's!)
|-----------------|
|-----------------|
|-------------777-|
|-------------xxx-|
|10-010-010-0-555-|
|10-010-010-0-----|
 .. ... ... .     

Fill Before Verse 2
|----------------------------------------------------------------|
|----------------------------------------------------------------|
|----------------------------------------------------------------|
|----------------------------------------------------------------|
|----------------------------------------------------------------|
|0-1-1-0-1-1-0-1-1-0-1-1-0-5-5-5--0-1-1-0-1-1-0-1-1-0-1-1-0-3-3-3|
 . . . . . . . . . . . . . . . .  . . . . . . . . . . . . . . . .


VERSE 2: Just play verse 1 with more tremolos on the 3's.

PRE CHORUS 2: Play everything the same, EXCEPT, during your second run
              through hit only one final 8.

Sorry, can't figure out the solo.
(It's REAL hard to do without the wah pedal)
But, if someone can figure it  I will give them full credit for it.
Just email me it and tell me your name and I'll update the tab!

PRE-SOLO

|------|  |-------|   |-|
|------|  |-------|   |-|
|------|  |-------|   |-|
|------|x1|-------|x15|-|End with this
|------|  |-------|   |-|
|10-020|  |010-020|   |0|
 .. ...    ... ...     .

SOLO BACKING (Guitar 2) (play twice with alternate endings)
|-----------------------------------------------|
|-----------------------------------------------|
|-----------------------------------------------|
|1p0-0-2p0-0-1p0-0-2p0-0-1p0-0-1h2h4-2p0-0-3h4h6|
|1p0-0-2p0-0-1p0-0-2p0-0-1p0-0-1h2h4-2p0-0-3h4h6|
|1p0-0-2p0-0-1p0-0-2p0-0-1p0-0-1h2h4-2p0-0-3h4h6|

|---------------------------------|
|---------------------------------|
|---------------------------------|
|1p0-0-2p0-0-1p0-0-2p0-0-1p0-0-2p0|
|1p0-0-2p0-0-1p0-0-2p0-0-1p0-0-2p0|
|1p0-0-2p0-0-1p0-0-2p0-0-1p0-0-2p0|

|---------------|          |----------------|
|---------------|          |----------------| 
|---------------|          |----------------| 
|0--------0-----|1st time  |0---------------|2nd time
|0--00000-0-----|          |0-00000-00000---| 
|0--00000-0-----|          |0-00000-00000---| 
    .....                     ..... .....     

CHORUS x1

For the last Chorus, play the 2nd half like this
|-------------------------------------------------------------------------|
|-------------------------------------------------------------------------|
|------------7/8/7/8-------------7/8/7/8-------------7/8/7/8--------------|
|------------x-x-x-x-------------x-x-x-x-------------x-x-x-x--------------|
|000-0-00-00-5/6/5/6-000-0-00-00-5/6/5/6-000-0-00-00-5/6/5/6-000-0-00-00--|
|000-0-00-00---------000-0-00-00---------000-0-00-00---------000-0-00-00--|
 ... . .. ..         ... . .. ..         ... . .. ..         ... . .. ..                             

  
           
         
.    palm mute  
| /  slide up
| \  slide down
| h  hammer-on
| p  pull-off
| ~  vibrato
| +  harmonic
| x  Mute note
=====================================================================
Tap to rate this tab
# A B C D E F G H I J K L M N O P Q R S T U V W X Y Z