Song name
# A B C D E F G H I J K L M N O P Q R S T U V W X Y Z

Seventh Day Slumber - Awake tab

intro:
e|---------------------------------------------------------------------------|
B|---------------------------------------------------------------------------|
G|---------------------------------------------------------------------------|
D|--------6h7-6-------------------6h7-6--------------------------------------|
A|---4-4---------4-4-4-7-7---4-4--------4-4-4-7-7----------------------------|
E|---------------------------------------------------------------------------|

verses:(palm muted)
e|---------------------------------------------------------------------------|
B|---------------------------------------------------------------------------|
G|---------------------------------------------------------------------------|
D|---------------------------------------------------------------------------|
A|--4-4-4-4-4-4-4-4-4-4-4-4-7-7-7-7-4-4-4-4-4-4-4-4-2-2-2-2-4-4-4-4-4-4-4-4--|
E|---------------------------------------------------------------------------|

e|----------------------------------------------|
B|----------------------------4-2-1-2-1---------|
G|----------------------------------------------|  (2x)
D|----------------------------------------------|
A|--7-7-7-7-4-4-4-4-4-4-4-4---------------------|
E|----------------------------------------------|

pre-chorus: and I hope they see. instead of following.
e|--------------------------------------------------------------------------|
B|--4/5-4-0-2-0-0----4/5-4-0-2-0-0------------------------------------------|
G|--------------------------------------------------------------------------|
D|--------------------------------------------------------------------------|
A|--------------------------------------------------------------------------|
E|--------------------------------------------------------------------------|

chorus: finally awake
e|--0---------0---------0---------2-------------------------------------------|
B|--5----4----2----4----5----4----2----4--------------------------------------|
G|--6----4----2----4----6----4----2----4--------------------------------------|
D|--6----4----2----4----6----4----4----4--------------------------------------|
A|--4----2----0----2----4----2----4----2--------------------------------------|
E|--------------------------------2-------------------------------------------|

solo:
e|---------------------------------------------------------------------------|
B|---4-6-6---4-6-8-6-6-9-6-6-8-6-6-9-6-6-6-8-6-6-9-6-6-11-6-6-9-6-6-8-6-6-6--|
G|---------------------------------------------------------------------------|
D|---------------------------------------------------------------------------|
A|---------------------------------------------------------------------------|
E|---------------------------------------------------------------------------|


e|---------------------------------------------------------------------------|
B|---9-8-6-9-8-6-9-8-6-9-8-6-9-8-6-11-9-8-11-9-8-----------------------------|
G|---------------------------------------------------------------------------|
D|---------------------------------------------------------------------------|
A|---------------------------------------------------------------------------|
E|---------------------------------------------------------------------------|

bridge:I'm alive it's all so clear to me
e|--0---------0----------------0----0----0-------|
B|--5----4----2----4-----------2----5----2----4--|
G|--6----4----2----4---(2x)----2----6----2----4--|
D|--6----4----2----4-----------2----6----2----4--|
A|--4----2----0----2-----------0----4----0----2--|
E|-----------------------------------------------|
Tap to rate this tab
# A B C D E F G H I J K L M N O P Q R S T U V W X Y Z