Song name
# A B C D E F G H I J K L M N O P Q R S T U V W X Y Z

Seventh Day Slumber - Something tab

Verse 1
Akk. Guitar
E|:--------------------:| repeat until Chorus
B|:---0---0---0---0----:|
G|:--0---0---0---------:|
D|:--------------------:|
A|:--------------------:|
E|:-0---3---5---3--3-2-:|


E|--------|
B|--------|
G|--------|
D|-5-5x-5-|
A|-5-5x-5-|
E|-3-3x-3-|

[Chorus]:

Guitar 1:
E|:---------------------------------------------------------------:| 2x
B|:---------------------------------------------------------------:|
G|:---------------------------------------------------------------:|
D|:-2----5----7----9/10-10-1010\9-9-9-9/10-10-1010\9--9--9--9-7-5-:|
A|:-2----5----7----9/10-10-1010\9-9-9-9/10-10-1010\9--9--9--9-7-5-:|
E|:-0----3----5----7/8--8--8--8\7-7-7-7/8--8--8--8\7--7--7--7-5-3-:|

Guitar 2
E|:---------------------------------------------------------------:|
B|:---------------------------------------------------------------:|
G|:----------------4/5--5--5--5/7-7-7-7/9--9--9--9/11-11-11-11----:|
D|:-2----5----7-----------------------------------------------7-5-:|
A|:-2----5----7-----------------------------------------------7-5-:|
E|:-0----3----5-----------------------------------------------5-3-:|


Interlude:

Guitar 1
E|-----------------------------|
B|-----------------------------|
G|-----------------------------|
D|-2----------2----------------|
A|-2----------2----------------|
E|-0----------0----------------|

Guitar 2
E|-----------------------------|
B|----------------7h8p7-9-7-9~-|
G|-----7-7-9-9~--9-------------|
D|-2--9-9----------------------|
A|-2---------------------------|
E|-0---------------------------|

Verse 2:
Akk. Guitar
E|:--------------------:| repeat until Chorus
B|:---0---0---0---0----:|
G|:--0---0---0---------:|
D|:--------------------:|
A|:--------------------:|
E|:-0---3---5---3--3-2-:|


E|--------|
B|--------|
G|--------|
D|-5-5x-5-|
A|-5-5x-5-|
E|-3-3x-3-|


[Chorus]:

Guitar 1:
E|:---------------------------------------------------------------:| 2x
B|:---------------------------------------------------------------:|
G|:---------------------------------------------------------------:|
D|:-2----5----7----9/10-10-1010\9-9-9-9/10-10-1010\9--9--9--9-7-5-:|
A|:-2----5----7----9/10-10-1010\9-9-9-9/10-10-1010\9--9--9--9-7-5-:|
E|:-0----3----5----7/8--8--8--8\7-7-7-7/8--8--8--8\7--7--7--7-5-3-:|

Guitar 2
E|:---------------------------------------------------------------:|
B|:---------------------------------------------------------------:|
G|:----------------4/5--5--5--5/7-7-7-7/9--9--9--9/11-11-11-11----:|
D|:-2----5----7-----------------------------------------------7-5-:|
A|:-2----5----7-----------------------------------------------7-5-:|
E|:-0----3----5-----------------------------------------------5-3-:|

Bridge:
Guitar 1&2
E|--------------------12---|
B|----------------------12-|
G|-------------------------|
D|-2----2----2----2--------|
A|-2----2----2----2--------|
E|-0----0----0----0--------|


Guitar 1&2
E|------------------------------------------|
B|------------------------------------------|
G|----------------5--7-----------------5--7-|
D|-2----5----2----5--7--2----5----2----5--7-|
A|-2----5----2----3--5--2----5----2----3--5-|
E|-0----3----0----------0----3----0---------|

[Chorus]:
Guitar 1:
E|---------------------------------------------------------------| 
D|---------------------------------------------------------------|
G|---------------------------------------------------------------|
D|-2----5----7----9/10-10-1010\9-9-9-9/10-10-1010\9--9--9--9-7-5-|
A|-2----5----7----9/10-10-1010\9-9-9-9/10-10-1010\9--9--9--9-7-5-|
E|-0----3----5----7/8--8--8--8\7-7-7-7/8--8--8--8\7--7--7--7-5-3-|


Guitar 2
E|---------------------------------------------------------------|
B|---------------------------------------------------------------|
G|----------------4/5--5--5--5/7-7-7-7/9--9--9--9/11-11-11-11----|
D|-2----5----7-----------------------------------------------7-5-|
A|-2----5----7-----------------------------------------------7-5-|
E|-0----3----5-----------------------------------------------5-3-|


Guitar 1&2
E|-------------| 
B|-------------|
G|-------------|
D|-2----5----7-|
A|-2----5----7-|
E|-0----3----5-|

Guitar 1&2
E|----------------------------------------------------------------------|
B|----------------------------------------------------------------------|
G|----------------------------------------------------------------------|
D|-9/10-10-1010\9-9-9-9/10-10-1010\9--9--9--9/10-10-1010\9-9-9-9-7-5-2--|
A|-9/10-10-1010\9-9-9-9/10-10-1010\9--9--9--9/10-10-1010\9-9-9-9-7-5-2--|
E|-7/8--8--8--8\7-7-7-7/8--8--8--8\7--7--7--7/8--8--8-8-\7-7-7-7-5-3-0--|

Guitar 1&2
E|---------| 
B|-----14--|
G|-----12--|
D|-2-------|
A|-2-------|
E|-0-------|
Tap to rate this tab
# A B C D E F G H I J K L M N O P Q R S T U V W X Y Z