Song name
# A B C D E F G H I J K L M N O P Q R S T U V W X Y Z

Seventh Seal - Eden tab

Artist: Seventh Seal
Song: Eden
A very unknown but amazing metal band. Please rate.
-12stoneslover33

Intro Pt. 1
C|-------------------------------------------------------------------|
G|-------------------------------------------------------------------|
C|-------------------------------------------------------------------|
F|2-xx-2-xx-2-xx-3-5-----------------------------------------------|4x
A|2-xx-2-xx-2-xx-3-5-------------------------------------------------|
D|2-xx-2-xx-2-xx-3-5-------------------------------------------------|

Intro Pt. 2
|-------------------------------------------------------------------|
|-------------------------------------------------------------------|
|-------------------------------------------------------------------|
|-----------------------------------------------------------------|4x
|0h2-2-0h2-2-0h2-03-5-----------------------------------------------|
|0h2-2-0h2-2-0h2-03-5-----------------------------------------------|

Pre-verse (palm muted)
|-------------------------------------------------------------------|
|-------------------------------------------------------------------|
|-------------------------------------------------------------------|
|-------------------------------------------------------------------|
|-------------------------------------------------------------------|
|22222-222330022222-222000-22222-222330022222-22200-----------------|

verse
|-------------------------------------------------------------------|
|-----------------------------------20-17~--------------------------|
|---------------------------------19--------------------------------|
|-------------------------------------------------------------------|
|2-22-2-22-3p2-5p2-5p3p2-2-22-2-22----------------------------------|
|2-22-2-22---------------2-22-2-22----------------------------------|
   ..   ..	                ..   ..
|-------------------------------------------------------------------|
|----------------------------------20-------------------------------|
|--------------------------------19--17~----------------------------|
|-------------------------------------------------------------------|
|2-22-2-22-3p2-5p2-5p3p2-2-22-2-22----------------------------------|
|2-22-2-22---------------2-22-2-22----------------------------------|
   ..   ..                 ..   ..
|-------------------------------------------------------------------|
|-------------------------------------------------------------------|
|-------------------------------------------------------------------|
|-------------------------------------------------------------------|
|2-22-2-22-3p2-5p2-5p3p2-2-22-2-22----------------------------------|
|2-22-2-22---------------2-22-2-22----------------------------------|
   ..   ..	                ..   ..	
|-------------------------------------------------------------------|
|-------------------------------------------------------------------|
|9999-11111111-12121212-14141414\777777777~-------------------------|
|xxxx--x-x-x-x--x-x-x-x--x-x-x-x-xxxxxxxxx------------------------|4x
|7777--9-9-9-9-10101010-12121212\555555555~-------------------------|
|-------------------------------------------------------------------|

Intro Pt. 1 1x
Intro Pt. 2 3x
Verse
Chorus
Bridge
(Palm mute)
|-------------------------------------------------------------------|
|-------------------------------------------------------------------|
|-------------------------------------------------------------------|
|-------------------------------------------------------------------|
|-------------------------------------------------------------------|
|-222--222-222-222222-222-222-222-222222-222-222--------------------|

|-silence-----------------------------------------------------------|
|-first-------------------------------------------------------------|
|-then--------------------------------------------------------------|
|-------------------------------------------------------------------|
|-0h3h5-0h3h5/8\7-0h3h5/7-55554444-0h3h5-0h3h5/8\7-0h3h5/7-55557777-|
|-------------------------55554444-------------------------55557777-|

|-------------------------------------------------------------------|
|-------------------------------------------------------------------|
|-------------------------------------------------------------------|
|-------------------------------------------------------------------|
|-0h3h5-0h3h5/8\7-0h3h5/7-55554444-0h3h5-0h3h5/8\7-0h3h5/7-5~-------|
|-------------------------55554444-------------------------5~-------|

Chorus
Intro pt 2 4x

END!!!
Please Rate!!!
Tap to rate this tab
 
# A B C D E F G H I J K L M N O P Q R S T U V W X Y Z