Song name
# A B C D E F G H I J K L M N O P Q R S T U V W X Y Z

Sex Pistols - Belsen Was A Gas tab

Song: Belsen Was A Gas
Artist: Sex Pistols
Album: The Great Rock 'N' Roll Swindle
Tuning: Standard (EADGBE)

This is the one with Johnny Rotten:

---------------------|
---------------------|
7-7-7-7-5-5-7-7-7-7-8|
7-7-7-7-5-5-7-7-7-7-8|
5-5-5-5-3-3-5-5-5-5-6|
---------------------|
Belsen was a gas I heard the other day...

-------------------|
-------------------|
7-7-7-7-5-5-5-7----|
7-7-7-7-5-5-5-7-5-5|
5-5-5-5-3-3-3-5-5-5|
----------------3-3|
In the open graves where the Jews all lay...

---------------------|
---------------------|
7-7-7-7-5-5-7-7-7-7-8|
7-7-7-7-5-5-7-7-7-7-8|
5-5-5-5-3-3-5-5-5-5-6|
---------------------|
Life is fun and I wish you were here...

-----------------|
-----------------|
7-7-7-5-5-5-7----|
7-7-7-5-5-5-7-5-5|
5-5-5-3-3-3-5-5-5|
--------------3-3|
They wrote on postcards to those held dear...

-----------|---------------|
-----------|---------------|
7---7---7--|---------------|
7-5-7-5-7-5|3-5-5-5-3-5-5-5|
5-5-5-5-5-5|3-5-5-5-3-5-5-5|
--3---3---3|1-3-3-3-1-3-3-3|
Oh, dear...

The one with Ronnie Biggs is exactly the same, except for the verse, which uses A# 
of D#, like so:

---------------------|
---------------------|
7-7-7-7-5-5-3-3-3-3-5|
7-7-7-7-5-5-3-3-3-3-5|
5-5-5-5-3-3-1-1-1-1-3|
---------------------|
Belsen was a gas I heard the other day...
Life is fun and I wish you were here...

Hope that's OK for you! If not, just tell me!

kingtommyboy@hotmail.com
Tap to rate this tab
 
# A B C D E F G H I J K L M N O P Q R S T U V W X Y Z