Song name
# A B C D E F G H I J K L M N O P Q R S T U V W X Y Z

Shachah - Deliver Us tab

Intro/Chorus
|----14----14---15-14|
|--12----12----------|
|--------------------|
|--------------------|
|--------------------|
|--------------------|

Verses

|--------------------------------------------------------------------------|
|--------------------------------------------------------------------------|
|----------------------------11--11-11-------------------------------------|
|-12-12-9-9-12--9--12--9--12-----------9-9-12--9--12--9--12--12-9----------|
|--------------------------------------------------------------------------|
|--------------------------------------------------------------------------|

|-19---19---17--19|
|-----------------|
|-----------------|
|-----------------|  Repeat many times
|-----------------|
|-----------------|

www.shachah.com
Tap to rate this tab
 
# A B C D E F G H I J K L M N O P Q R S T U V W X Y Z