Song name
# A B C D E F G H I J K L M N O P Q R S T U V W X Y Z

Shades Apart - Stranger By The Day tab

		 STRANGER BY THE DAY - SHADES APART
-------------------------------------------------------------------------------
Tabbed by:guitarsyco33
Email:guitarsyco33@hotmail.com

Tuning:standard

e|----------------------------------------------------------------------------|
B|----------------------------------------------------------------------------|
G|-4-4---4/11-11--11/9-9---9--11x11x11--11-11--11-11-11--11\9/11--11-11-11-11-|
D|-4-4---4/11-11--11/9-9---9--11x11x11--11-11--11-11-11--11\9/11--11-11-11-11-|
A|-2-2---2/9--9---9/-7-7---7- 9-x9-x9---9--9---9--9--9---9\-7/9---9--9--9--9--|
E|----------------------------------------------------------------------------|

e|---------------------------------------------------------------------------|
B|---------------------------------------------------------------------------|
G|-11-11--11-11-11-11--11\9/11--11-11-11------4-4----------------------------|
D|-11-11--11-11-11-11--11\9/11--11-11-11---6--4-4--6-------------------------|
A|-9--9---9--9--9--9---9\-7/9---9--9--9----6--2-2--6-------------------------|
E|-----------------------------------------4-------4-------------------------|


     interlude x2
e|----------------------------------------------------------------------------|
B|----------------------------------------------------------------------------|
G|-9-9--9-9------------4-4--3-3---------------9-9--9-9--8-8--8-8-----4-4------|
D|-9-9--9-9--4-4--4-4--4-4--3-3--6-6--6-6-----9-9--9-9--8-8--8-8--6--4-4-6----|
A|-7-7--7-7--4-4--4-4--2-2--1-1--6-6--6-6-----7-7--7-7--6-6--6-6--6--2-2-6----|
E|-----------2-2--2-2 -----------4-4--4-4-------------------------4------4----|

e|---------------------------------------------------------------------------|
B|---------------------------------------------------------------------------|
G|-9-9--9-9------------4-4--3-3---------------9-9--9-9--8-8--8-8-------------|
D|-9-9--9-9--4-4--4-4--4-4--3-3--6-6--6-6-----9-9--9-9--8-8--8-8-------------|
A|-7-7--7-7--4-4--4-4--2-2--1-1--6-6--6-6-----7-7--7-7--6-6--6-6-------------|
E|-----------2-2--2-2------------4-4--4-4------------------------------------|


     chorus
e|----------------------------------------------------------------------------|
B|----------------------------------------------------------------------------|
G|-4-4--4---------9-9-9--11-11--4-4--4---------9-9-9--11-11-4-4--4--------9---|
D|-4-4--4-4-4--4--9-9-9--11-11--4-4--4-4-4--4--9-9-9--11-11-4-4--4-4-4--4-9---|
A|-2-2--2-4-4--4--7-7-7--9--9---2-2--2-4-4--4--7-7-7--9--9--2-2--2-4-4--4-7---|
E|--------2-2--2-----------------------2-2--2----------------------2-2--2-----|

e|---------------------------------------------------------------------------|
B|---------------------------------------------------------------------------|
G|-9-9--11-11-----4-4--------------------------------------------------------|
D|-9-9--11-11---6-4-4-6------------------------------------------------------|
A|-7-7--9--9----6-2-2-6------------------------------------------------------|
E|--------------4-----4------------------------------------------------------|

      solo
e|----------------------------------------------------------------------------|
B|----------------------------------------------------------------------------|
G|------------8-11-9--9-9-8--------------------8-9-8--8-9-11-------8-9-8------|
D|----8-9-11----------------11-9-8------8-9-11--------------11--11-------9----|
A|-11------------------------------9-11------------------------------------11-|
E|----------------------------------------------------------------------------|

e|---------------------------------------------------------------------------|
B|---------------8b---------8-9-11-12-11-9----9------------------------------|
G|-8-11-9--8-9-8----9-8--------------------11---11-8---8---------------------|
D|----------------------11---------------------------11----------------------|
A|---------------------------------------------------------------------------|
E|---------------------------------------------------------------------------|
e|---------------------------------------------------------------------------|

B|---------------------------------------------------------------------------|
G|-6-6--6-6-----------4-4--3-3-------9-9--8-8--4-4--6-6-6--------------------|
D|-6-6--6-6-4-4--4-4--4-4--3-3-4-4---9-9--8-8--4-4--6-6-6--------------------|
A|-4-4--4-4-4-4--4-4--2-2--1-1-4-4---7-7--6-6--2-2--4-4-4--------------------|
E|----------2-2--2-2-----------2-2-------------------------------------------|

    chorus x7( till ending)

 finish with acoustic the ending is about the same as the solo

| /  slide up
| \  slide down
| h  hammer-on
| p  pull-off
| ~  vibrato
| +  harmonic
| x  Mute note
===============================================================================
Tap to rate this tab
 
# A B C D E F G H I J K L M N O P Q R S T U V W X Y Z