Guitaretab - guitar tabs
Song name
# A B C D E F G H I J K L M N O P Q R S T U V W X Y Z
Home / S / Shadows / Apache tab

Shadows - Apache tab

t. See http://www.olga.net/faq/ for more information.                     #
#-----------------------------------------------------------------------------#

From: 
Date: Wed, 14 Apr 1999 20:02:38 +0200
Subject: s/shadows/apache.tab

The Shadows: "Apache"
Music by: Jerry Lordan

Tabbed by: Patrik Str=F6m (pjuppe@hotmail.com)

This is my first tab ever, so i hope there aren't any major faults. I =
haven't
dubble checked it so there might be the right note on the wrong string =
or=20
something like that.

   Am               D
e----------------------------5--3---
B--------1--3^------------1---------
G-----2----------------2------------
D----------------------------------- Play 2 times
A-----------------------------------
E-----------------------------------

  Am            D         Am
e--------------------------
B--------------------------
G------2-----2-------------
D---2-----2-----4--2--0--2-  Repeat
A--------------------------
E--------------------------

  D           G        D
e------------------------
B----2-----3-------------
G-2-----2-----4--2--0--2-
D------------------------
A------------------------
E------------------------

  Am            D         Am
e------------------------
B------------------------
G-----2-----2------------
D--2-----2-----4--2--2--- =20
A------------------------
E------------------------
  F                           Am
e----------------------------------
B----------------------------------
G---------------------------------- Played 2 times with muted strings.
D---3333---3333---3333---3333------
A-3------3------3------3------2-0*-
E----------------------------------

* =3D Only played the first time

  F            G        Am
e-----------------------0-----------
B-------1--0---0--1--3-----3--1-----
G----2----------------------------2-
D-3---------------------------------
A-----------------------------------
E-----------------------------------
  F            G        C
e---------------------------------
B-------1--0---0--1--3------------
G-----2------------------0--------
D-3-------------------------------
A---------------------------------
E---------------------------------
  C7
e-----3-------6---
B-2/5---5-5/8---8-
G-----------------
D-----------------
A-----------------
E-----------------
  F            G        Am
e-----------------------0-----------
B-------1--0---0--1--3-----3--1-----
G----2----------------------------2-
D-3---------------------------------
A-----------------------------------
E-----------------------------------
  F                           Am
e----------------------------------
B----------------------------------
G---------------------------------- Played 2 times with muted strings.
D---3333---3333---3333---3333------
A-3------3------3------3------2-0*-
E----------------------------------

* =3D Only played the first time

  Am              D            Am=20
e-----------------------------------
B-----------------------------------
G----------------------------------- Play 2 times with muted strings.
D---77777-----7----------------7----
A-7-------7-7---7-99999--7--5-----7-
E-----------------------------------
  D               G            D
e-----------------------------------
B-----------------------------------
G---77777-----7----------------7----
D-7-------7-7---7-99999--7--5-----7-
A-----------------------------------
E-----------------------------------
  Am              D            Am=20
e-----------------------------------
B-----------------------------------
G----------------------------------- Play with muted strings.
D---77777-----7----------7--5--7----
A-7-------7-7---7-99999-----------7-
E-----------------------------------
  Am
e-----0---
B----1----
G---2-----
D--2------
A-0-------
E---------

  F            G        Am
e-----------------------0-----------
B-------1--0---0--1--3-----3--1-----
G----2----------------------------2-
D-3---------------------------------
A-----------------------------------
E-----------------------------------
  F            G        C
e------------------------------------------
B-------1--0---0--1--3---------------------
G-----2------------------0----0000-1-0-1-0-
D-3----------------------------------------
A------------------------------------------
E------------------------------------------
  F            G        Am
e-----------------------0-----------
B-------1--0---0--1--3-----3--1-----
G----2----------------------------2-
D-3---------------------------------
A-----------------------------------
E-----------------------------------
  F                           Am
e----------------------------------
B----------------------------------
G---------------------------------- Played with muted strings.
D---3333---3333---3333---3333------
A-3------3------3------3------2-0--
E----------------------------------
  F                           Am
e-------------------------------
B-------------------------------
G-------------------------------
D----------------------333333-2-
A--------000000-333333----------
E-111111------------------------

   Am               D
e----------------------------5--3---
B--------1--3^------------1---------
G-----2----------------2------------
D----------------------------------- Play 3 times
A-----------------------------------
E-----------------------------------


   Am               D
e------------------------------------
B--------1--3^------------1-----1----
G-----2----------------2-----2-----2-
D------------------------------------=20
A------------------------------------
E------------------------------------

   Am               D
e----------------------5--3--0----------------
B--------1--3^------------------3--1--0-------
G-----2----------------------------------0--2-
D---------------------------------------------
A---------------------------------------------
E---------------------------------------------

Chords used:

Am     D      G      F      C      C7

EADGBe EADGBe EADGBe EADGBe EADGBe EADGBe
-02210 --0232 320033 133211 -32010 -32310=20
[ Tab from: http://www.guitaretab.com/s/shadows/17122.html ]
Related for Apache tab
Apache chords by Shadows