Song name
# A B C D E F G H I J K L M N O P Q R S T U V W X Y Z

Shaggy - I Like To Move It tab

Artist: Shaggy
Song: I like to move it


G|-------------|---------------|
D|---------5---|----0--3--0--5-|
A|-3--3--3---6-|-6-------------|
E|-------------|---------------|

oder


G|-------------|---------------|
D|---------5---|-------3-----5-|
A|-3--3--3---6-|-6--5-----5----|
E|-------------|---------------|


Fragen an: simon.graefner@web.de
Tap to rate this tab
# A B C D E F G H I J K L M N O P Q R S T U V W X Y Z