Song name
# A B C D E F G H I J K L M N O P Q R S T U V W X Y Z

Shaggy - Hope tab

-----------------------------------------------------------------------------
                    Hope ( Feat. Mister Mydas ) - Shaggy
-----------------------------------------------------------------------------

Tabbed by: Country Bass
E-mail: aaron.white8@education.nsw.gov.au

Track: 6
Album: Hot Shot
Year: 2000

Tuning: Standard

Lead guitar

Intro

e|-------------------------------------------------------------|
B|-------------------------------------------------------------|
G|-------------------------------------------------------------|
D|---------3-6----4-3--------------4-3-4-3-------3-6----4-3----|
A|--4----6------------4--------------------4---6------------4--|
E|-------------------------------------------------------------|

e|-------------------|
B|-------------------|
G|--5-5-4-4-3-3------|
D|--------------6-5--|
A|-------------------|
E|-------------------|


Rhythm acoustic

Intro

e|-------x-----------xx-------x-----------xx-------x-----------xx-------x----------xx-|
B|--1--1-x-1--1---1--xx--1--1-x-1--1---1--xx--1--1-x-1--1---1--xx--1--1-x-1--1---1-xx-|
G|-------x-----------xx-------x-----------xx--2--2-x-2--2---2--xx--2--2-x-2--2---2-xx-|
D|--2--2-x-2--2---2--xx--2--2-x-2--2---2--xx--3--3-x-3--3---3--xx--3--3-x-3--3---3-xx-| x2
A|--3--3-x-3--3---3--xx--3--3-x-3--3---3--xx-------x-----------xx-------x----------xx-|
E|-------x-----------xx-------x-----------xx-------x-----------xx-------x----------xx-|

Verse
    
e|-------x-----------xx-------x-----------xx-------x-----------xx-------x----------xx-|
B|--1--1-x-1--1---1--xx--1--1-x-1--1---1--xx--1--1-x-1--1---1--xx--1--1-x-1--1---1-xx-|
G|-------x-----------xx-------x-----------xx--2--2-x-2--2---2--xx--2--2-x-2--2---2-xx-|
D|--2--2-x-2--2---2--xx--2--2-x-2--2---2--xx--3--3-x-3--3---3--xx--3--3-x-3--3---3-xx-|
A|--3--3-x-3--3---3--xx--3--3-x-3--3---3--xx-------x-----------xx-------x----------xx-|
E|-------x-----------xx-------x-----------xx-------x-----------xx-------x----------xx-|
    
Chorus

e|-------x---x-----xx------x---x-----xx------x---x-----xx------x---x-----xx-|
B|--1--1-x-1-x-1-1-xx-3--3-x-3-x-3-3-xx-1--1-x-1-x-1-1-xx-1--1-x-1-x-1-1-xx-|
G|-------x---x-----xx-3--3-x-3-x-3-3-xx-2--2-x-2-x-2-2-xx-2--2-x-2-x-2-2-xx-|
D|--2--2-x-2-x-2-2-xx-2--2-x-2-x-2-2-xx-3--3-x-3-x-3-3-xx-3--3-x-3-x-3-3-xx-|
A|--3--3-x-3-x-3-3-xx-3--3-x-3-x-3-3-xx------x---x-----xx------x---x-----xx-|
E|-------x---x-----xx------x---x-----xx------x---x-----xx------x---x-----xx-|


Playing Order

Lead 

Intro
(no lead guitar for the rest of the song)

Acoustic

Intro 
Verse x4
Chorus x2
Verse x4
Chorus x2
Intro
Chorus x6 (Till fade out)


************************************

| /   slide up
| \   slide down
| h   hammer-on
| p   pull-off
| ~   vibrato
| +   harmonic
| x   Mute note
| b   Bend
| pb  Pre-bend
| br  Bend release
| pbr Pre-bend release
| brb Bend release bend

************************************
Tap to rate this tab
# A B C D E F G H I J K L M N O P Q R S T U V W X Y Z