Song name
# A B C D E F G H I J K L M N O P Q R S T U V W X Y Z

Shamans Harvest - Broken Dreams tab

this is the theme song for wwe superstar drew mcintyre, but also a kickass song by 
harvest

Drop D-Tuning

Intro/Verse
e|-------------------------------------------------|
B|-------------------------------------------------|
G|-------------------------------------------------|
D|-1--------------4-----1--------------------------|
A|------1---2-----------------1----2---------------|
D|---1----1---1----1-----1-----1----1---6----------|
      Whats that metronome I hear, perhaps the end is drawing near?
       You never hear the shot that takes you down(etc)
(PreChorus)
e|----------------------------------------------------|
B|----------------------------------------------------|
G|----------------------------------------------------|
D|-----------6-6-6---6~--------------8-8-8---8~-------|  (x2)
A|-----------4-4-4---4~--------------6-6-6---6~-------|
D|----------------------------------------------------|
        Out of time               So say goodbye
 What is yours                Now is mine

(Chorus)
e|---------------------------------------|
B|---------------------------------------|
G|-------------6---6---4---4---6---6-----|  (x3)
D|-------------4---4---2---2---4---4-----|
A|---1---1-------------------------------|
D|---1---1-------------------------------|
And I dream broken dreams    I make them for
     You…                         I’ll make them come
     True…
Tap to rate this tab
 
# A B C D E F G H I J K L M N O P Q R S T U V W X Y Z