Guitaretab - guitar tabs
Song name
# A B C D E F G H I J K L M N O P Q R S T U V W X Y Z

Shania Twain - Man I Feel Like A Woman tab

Capo 1st fret 

Intro finger picking 
||------------------------------------------|
||------------------------------------------|
||-3--3-3-3-3--3-3-3---3--3-3-3-3--3-3-3----|
||-3--3-3-3-3--3-3-3---3--3-3-3-3--3-3-3----|
||-1--1-1-1-1--1-1-1---1--1-1-1-1--1-1-1----|
||-------------------4b------------------4b-|

Intro with Shania
||--------------------------------------------------|| 
||--------------------------------------------------|| 
||*--3--3-3-3-3--3-3-3---3-3-3-3----8--8--/-3-3----*|| 
||*--3--3-3-3-3--3-3-3---3-3-3-3----8--8--/-3-3----*|| 
||---1--1-1-1-1--1-1-1---1-1-1-1----6----6/-1-1-----|| 
||---------------------4b--------6b-------------4b--|| 

intro end         |- play with a pick--...
|------------------------|
|------------------------|
|-3--3-3-3-3--3----3-----|
|-3--3-3-3-3--3----3-----|
|-1--1-1-1-1--1----1-----|
|--------------------4b--|

Verse 
||--------------------------------------------------|| 
||--------------------------------------------------|| 
||*--3--3-3-3-3--3-3-3---3-3-3-3----8--8--/-3-3----*|| 
||*--3--3-3-3-3--3-3-3---3-3-3-3----8--8--/-3-3----*|| 
||---1--1-1-1-1--1-1-1---1-1-1-1----6----6/-1-1-----|| 
||---------------------4b--------6b-------------4b--||

bridge                            |-( stop there the third verse )                                         
|--4----------------1---------------|
|--4----------------1---------------|
|--5----------------3-3-3-3-3-3-3-3-| 
|--6-6-6-6-6-6-6-6--3-3-3-3-3-3-3-3-| 
|--6-6-6-6-6-6-6-6--1-1-1-1-1-1-1-1-| 
|--4-4-4-4-4-4-4-4------------------| 


chorus 
||------------------------------------------|
||------------------------------------------|
||*-----------------------------------------|
||*-3-3-3-3-3-3-3-3-3-3-3-3-3-3-3-3-3-3-3-3-|
||--3-3-3-3-3-3-3-3-3-3-3-3-3-3-3-3-3-3-3-3-|
||--1-1-1-1-1-1-1-1-1-1-1-1-1-1-1-1-1-1-1-1-|
    tremolo effect also 

1.                   
|-------------------||
|-------------------||
|-7-7-7-7--3-3-3-3-*||
|-7-7-7-7--3-3-3-3-*||
|-5-5-5-5--1-1-1-1--||
|-------------------||
[ Tab from: http://www.guitaretab.com/s/shania-twain/118656.html ]
2. 
|--------------------3-||
|--------------------3-||
|-7-7-7-7--3-3-3-3---4-||
|-7-7-7-7--3-3-3-3---5-||
|-5-5-5-5--1-1-1-1---5-||
|--------------------3-||

bridge 2
||-----------------------------------|| 
||-----------------------------------|| 
||--3--3-3-3-3--3-3-3----8--8-8-8----|| 
||--3--3-3-3-3--3-3-3----8--8-8-8----|| 
||--1--1-1-1-1--1-1-1----6--6-6-6----|| 
||---------------------6b---------4b-||

 return to verse - bridge  chorus  solo 

Solo!

E--9/-----------------9-9-9-9/-----------------------------------8---8-8-8-9-8---|
B----9/--12b-12b\-6/8-8-8-8-8/-----------------------8--------/9-9-9-9-9-9-9-9---|
G----------------------8-8-------------6b--------6---8-6b-----/8---8-------------|
D----------------------------------6-8-6-----6-8---8-----[8]---------------------|
A-------------------------------6/8-------6/8------------------------------------|
E--------------------------------------------------------------------------------|

E------15----15----15-16-15---16h18-18-18-16h18-18-18-16h18-18-18-13---------------|
B--/16-16-16-16-16-16-16-16-----------------------------------------14----------13-|
G--/15----15----15---------15---------------------------------------------15---13-|
D----------------------------------------------------------------------15----15----|
A----------------------------------------------------------------------------------|
E----------------------------------------------------------------------------------|

Go to bridge  chorus - Outro

Outro

||--1-------------------------------------||
||--1-----------------4---------8---------||
||*-3--3-3-3-3--3-3-3-5---------8--8-8-8-*||
||*-3--3-3-3-3--3-3-3-6--6-6-6--8--8-8-8-*||
||--1--1-1-1-1--1-1-1-6--6-6-6--6--6-6-6--||
||--------------------4--4-4-4------------||

||--1-----------------------------------------||
||--1-----------------4---------8-------------||
||--3--3-3-3-3--3-3-3-5---------8--8-8-8--3-3-||
||--3--3-3-3-3--3-3-3-6--6-6-6--8--8-8-8--3-3-||
||--1--1-1-1-1--1-1-1-6--6-6-6--6--6-6-6--1-1-||
||--------------------4--4-4-4----------------||
Related for Man I Feel Like A Woman tab