Song name
# A B C D E F G H I J K L M N O P Q R S T U V W X Y Z

Shania Twain - Shoes tab

---------------------------------------------------------|
---------------------------------------------------------|
---------------------------3hb-3-------------------------|
-----5-----5-----5------5---------5--5/7-5-------5-7-----|
-5/7---5/7---5/7----7hb---------------------5/7----------|
---------------------------------------------------------|

---------------------------------------------------------|
------------------------------------------12-----13------|
--3hb----------------------------------------------------|
------5------5-----5-----5------------12-----13----------|
---------5/7---5/7---5/7-----7b---12---------------------|
---------------------------------------------------------|
                             slow bend
---------------------------------------------------------|
-----14------15---------16-------------------------------|
---------------------------------------------------------|
-14------15------15--16----------------------------------|
---------------------------------------------------------|
---------------------------------------------------------|


Its probably not 100%, but I think it is pretty close.
Please rate,
Tap to rate this tab
 
# A B C D E F G H I J K L M N O P Q R S T U V W X Y Z