Shankar Ehsaan Loy - Toh Zinda Ho Tum Zindagi Na Milegi Dobara tab

-------------------------------------------------------------------------------
			     Toh Zinda Ho Tum - Shankar Ehsaan Loy (Zindagi Na Milegi Dobara)
-------------------------------------------------------------------------------

Tabbed by: VelvetAssassin

Tuning: Standard (EADGBe)

e|---------------------------------------|
B|---1------1---------0-------0----------|
G|-0---0-----0------0---0------0---------|
D|-------2----------------2--------------|   x2 Times
A|---------------------------------------|
E|---------------------------------------|

e|---------------------------------------|
B|---0------0---------3-------3----------|
G|-0---0-----0------0---0------0---------|
D|-------0----------------0--------------|
A|---------------------------------------|
E|---------------------------------------|

This layout is repeated throughout the intro and till the end of verse.
At 0:56 a slight modification comes into play, which is as follows:

e|---------------------------------------|
B|---1-----1-----1-------0-----0-----0---|
G|-0---0-----0---------0---0-----0-------|
D|-------2-----2-------------2-----2-----|   x2 Times
A|---------------------------------------|
E|---------------------------------------|

e|---------------------------------------|
B|---0------0-----0-------3-----3----3---|
G|-0---0------0---------0---0-----0------|
D|-------0------0-------------0-----0----|
A|---------------------------------------|
E|---------------------------------------|

Keep playing this modified tab till fade-out. That's it... beautiful lyrics, beautiful 
music, beautiful song.

ThanQ for reading.
Tap to rate this tab
 
# A B C D E F G H I J K L M N O P Q R S T U V W X Y Z