Song name
# A B C D E F G H I J K L M N O P Q R S T U V W X Y Z

Shawn Mullins - Everywhere I Go chords

Highlighted       Show chord diagrams
Shawn Mullins - Everywhere I Go

Capo 3rd

   D                G
e|-2-2-2-0-2-0-2-0--------------|
B|-3----------------3-3-2-3-2-3-|
G|-2----------------0-0-0-0-0-0-|
D|-0----------------0-0-0-0-0-0-| x2
A|------------------------------|
E|------------------3-3-3-3-3-3-|

Intro D   |A   |G   |    ||x2

Verse 1
Em            G
A good bit of me sleeps underneath
D                   A
In the bed of my soul lying next to belief
Em                  G
If I toss where I lay I might turn her away
D
So I try to fall still dreamin' someday I will
Bm           G
Wake up with you beside me
Bm               G
With all of your love inside me
Bm           G                A
So when I am gone it guides me on

Chorus
D             A        G
Everywhere I go you know I take you with me sweet darlin'
D             A       Em    G (hold)
Everywhere I go You know I take you with me

Inst D   |A    |G   |    ||

Verse 2
Em             G
A good bit of me keeps to the sky
D                    A
On the back of a cloud unaware of how high
Em                   G
If I stay where I lay I might drift away soon
D
From the pull of the sun I am full of the moon
Bm                  G
But baby you're the one who grounds me
Bm                      G
When the sounds of this world surrounds me
Bm                  G                A
Your love it took a look and found me lost and on my own
 

Chorus
D             A        G
Everywhere I go you know I take you with me sweet darlin'
D             A       Em    G
Everywhere I go You know I take you with me
Bridge:
Bm    G         D             A
Baby I always try look at life through open eyes
Bm     G                F                     A
Baby my dreams came true with the treasure I find inside of you

Solo  D    |A   |G    |   A |D   
|A   |Em D/F# G| A    |

e-------------------------------------------|
B---------s7-5---7-s-3---2h3p2p0------------|
G-----0-2------------------------2-0---0-2--|
D---4--------------------------------4------|
A-------------------------------------------|
E-------------------------------------------|

e------------5------------------------------|
B---------s7---7-s-5-s-7-s-3----------------|
G-----0-2-----------------------------------|
D---4---------------------------------------|
A-------------------------------------------|
E-------------------------------------------|

Chorus
D             A        G
Everywhere I go you know I take you with me sweet darlin'
D             A       Em    G
Everywhere I go You know I take you with me
D             A        G
Everywhere I go you know I take you with me sweet darlin'
D             A       Em    G
Everywhere I go You know I take you with me
D             A        G
Everywhere I go you know I take you with me sweet darlin'
D             A       Em    G
Everywhere I go You know I take you with me
Tap to rate this tab
 
# A B C D E F G H I J K L M N O P Q R S T U V W X Y Z