Song name
# A B C D E F G H I J K L M N O P Q R S T U V W X Y Z

Shawn Mullins - You Mean Everything To Me tab

Artist - Shawn Mullins
Song - You Mean Everything To Me
Album - Souls core

I put the Souls Core album on recently cause i thought i hadnt listened to it in ages,
i thought that because ive been wanting to know how to play this song for ages - pretty much
since i first bought the cd years ago - that i could get my guitar out and see if i could work
it out... this is what i came up with.

This is all MY work so dont ask if i got it out of a book or magazine or whatever...

I think it sounds 100% right!!

CAPO 5!!!


Notes relevant to capo

Intro
e----------------------------------------------------------|
b--------3---------------3-------------3-----------3-------|
g-----------0---------------0-------------0-----------0----|
D------0--------------0-------------0-----------0----------|
A------------------2--------------3-----------3------------|
E---3------------------------------------------------------|

e----------------------------------------------------------|
b--------3---------------3-------------3-------------------|
g----------0----------------0------------0-----------------|
D------0--------------0-------------0----------------------|
A------------------2--------------3----------3-------------|
E---3------------------------------------------------------|

Verse
e----------------------------------------------------------|
b--------3---------------3-------------3-------------------|
g----------0----------------0------------0-----------------|
D------0--------------0-------------0----------------------|
A------------------2--------------3------------------------|
E---3------------------------------------------------------|
Repeat that as many times as necessary.


There's this part which is kinda a link between the verses and the chorus which he plays
the end of the first verse (which just leads back into the second verse) and then also
the every chorus...
e----------------------------------------------------------------------------------------------------|
b--------3-------------3-------------3-----------3-----------2---------3----------3--------3---------|
g----------0--------------0------------0-----------0-------0---0---------0----------0--------0-------|
D------0------------0-------------0-----------0----------0------------0---------0---------0----------|
A----------------2--------------3-----------4-----------------------3---------2----------------------|
E---3-----------------------------------------------------------------------------------2------------|

Chorus
e----------------------------------------------------------|
b---1--------3---------3----------1---------3--------------|
g---0--------0---------2----------0---------2--------------|
D---2--X4----0-X6------2--X4------2---X5----0--------------|
A---3--------x---------0-------2--3------------------------|
E------------3---------------------------------------------|
you repeat that a couple of times.

song ends on a C chord.

Well thats it all... hope you like it and have fun playing it... its a good song to impress
the ladies with ;)

If you do think that there could be any improvements made to it let me know in the comments
or whatever.
cheers!
Tap to rate this tab
# A B C D E F G H I J K L M N O P Q R S T U V W X Y Z