Song name
# A B C D E F G H I J K L M N O P Q R S T U V W X Y Z

Sheep - Glycerine tab

this song is done by my band SHEEP and it is a cover of the glycerine by bush
TABBED BY:Martin Shrewsbury and Brian Tooley

E----------------
B----------------
G-----5--7--3----
D--3--5--7--3----
A--3--3--5--1----
E--1--x--x--x----
the strumming and sound is exactly like BUSH's


this is the bad moon white again part
E----------------------------
B----------------------------
G--7-7-7-7-7-7--3-3-3-3-3-3--
D--7-7-7-7-7-7--3-3-3-3-3-3--
A--5-5-5-5-5-5--1-1-1-1-1-1--
E--X-X-X-X-X-X--X-X-X-X-X-X--
PALM ON AND OF ON EACH STRUM

AND THAT IS THE WHOLE SONG
Tap to rate this tab
# A B C D E F G H I J K L M N O P Q R S T U V W X Y Z