Song name
# A B C D E F G H I J K L M N O P Q R S T U V W X Y Z

Sheep - Lost tab

BAND:Sheep
TITLE:lost
WROTE BY:Martin Shrewsbury and Brian Tooley

intro/verse
e-----------------------------------
b-----------------------------------
g------7------7-------3-------5-----
d-----------------------------------
a----5---5------5---1---1---3---3---
e--0--------0------0-------0--------

e-------------
b-------------
g--7---3---5--
d--x---x---x--
a--5---1---3--
e--0---0---0--
Tap to rate this tab
# A B C D E F G H I J K L M N O P Q R S T U V W X Y Z