Guitaretab - guitar tabs
Song name
# A B C D E F G H I J K L M N O P Q R S T U V W X Y Z

Sherwood - Best In Me tab

Intro: (begins just after keyboard effects)

e|-------------------------------------|
B|-------------------------------------|
G|-9-9-9-9--9-9-9-9--11-11-11--7-7-7-7-|
D|-9-9-9-9--9-9-9-9--11-11-11--7-7-7-7-|
A|-7-7-7-7--7-7-7-7--9--9--9---5-5-5-5-|
E|-------------------------------------|

Verse:

e|-------------------------------------|
B|-------------------------------------|
G|-------------------------------------|
D|-9-9-9-9--9-9-9-9--11-11-11--7-7-7-7-|
A|-7-7-7-7--7-7-7-7--9--9--9---5-5-5-5-|
E|-------------------------------------|

Listen to strumming to understand the rhythm

End of verse slide part:

e|-------------------------------------------|
B|-------------------------------------------|
G|-------------------------------------------|
D|-9-9-9-9--9-9-9-9--11--Let ring---14-14-14-|
A|-7-7-7-7--7-7-7-7--9---then slide-12-12-12-|
E|-------------------------------------------|

Again listen to strumming to hit notes at the right time

Pre-Chorus Strum:

e|-------------|
B|-------------|
G|-14-14-14-14-|
D|-14-14-14-14-|
A|-12-12-12-12-|
E|-------------|

Chorus:
[ Tab from: http://www.guitaretab.com/s/sherwood/153545.html ]
e|----------------------------------------|
B|----------------------------------------|
G|-7-7-7-7--------------------------------|
D|-7-7-7-7--7-7-7-7--9-9-9-9--11-11-11-11-|
A|-5-5-5-5--7-7-7-7--9-9-9-9--11-11-11-11-|
E|----------5-5-5-5--7-7-7-7--9--9--9--9--|


e|-------------------------------|
B|-------------------------------|
G|-7-7-7-7-----------11-11-11-11-|
D|-7-7-7-7--7-7-7-7--11-11-11-11-|  This part is only played on the 2nd
A|-5-5-5-5--7-7-7-7--9--9--9--9--|  bar out of the 4
E|----------5-5-5-5--------------|


e|----------------------------------------|
B|----------------------------------------|
G|-7-7-7-7--------------------------------|
D|-7-7-7-7--7-7-7-7--9-9-9-9--11-11-11-11-|
A|-5-5-5-5--7-7-7-7--9-9-9-9--11-11-11-11-|
E|----------5-5-5-5--7-7-7-7--9--9--9--9--|

e|----------------------------|
B|----------------------------|
G|-7-7-7-7--------------------|
D|-7-7-7-7--7-7-7-7--9-9-9-9--|
A|-5-5-5-5--7-7-7-7--9-9-9-9--|
E|----------5-5-5-5--7-7-7-7--|

Back to intro and verse

Small Interlude part: (And I wish I had a plane or cable car..)

e|---------------------|
B|---------------------|
G|-9--11--9------------|
D|-9--11--9--11--9--7--|
A|-7--9---7--11--9--7--|
E|-----------9---7--5--|

Thats pretty much the song - the parts are just repeated throughout (especially the 
in parts such as the acoustic bit near the end)

Anyways enjoy playing this song!
Related for Best In Me tab
Advertisement will be closed in 10 seconds