Song name
# A B C D E F G H I J K L M N O P Q R S T U V W X Y Z

Shinedown - Crow And The Butterfly tab


e-------------------|    2x's
b-------------------|
g-------------6-----|
d-------7---------7-|
a-0-----------------|
e-------------------|

e------------------| 2x"s
b-------1----------|
g----2-----2-------|
d-3----------------|
a------------------|
e------------------|


e------------------|
b------------------|
g-------0----------|  2x's
d----2-----2-------|
a-3----------------|
e------------------|

e------------------|
b------------------|
g--------0---------|
d-----2-----2------|  2x's
a-1----------------|
e------------------|
Tap to rate this tab
 
# A B C D E F G H I J K L M N O P Q R S T U V W X Y Z