Song name
# A B C D E F G H I J K L M N O P Q R S T U V W X Y Z

Shinedown - The Energy tab

Well since no one has the balls to tab out "The Energy" by Shinedown so I guess I will.

This will be very close but there are layers of studio guitars.

Tuning D-A-D-G-B-e

Gsus2: 5    Fsus2  3
       8           6
       7           5
       5           3
       5           3
       5           3

Intro riff: Rhythm Chords: 4/4 Gsus2 5 counts then Fsus2 3 counts
Intro lead: simplistically

------------------------------------------|
------8-10--8-10--8-10--8-10-8-10/11\10-8-|
------------------------------------------|

verse
--5----------------7---------------------|
--8----------------8---------------------|
--7-787-787-77810--7-787-787-55323-------|
--5----------------5---------------------|
--5-565-565-556-8--5-565-565-33101-------|
--5----------------5---------------------|

Chords transisioning from verse to chorus are: F---A#--c

Here are just the chords for the chorus so you'll have to figure out
the timing on your own and they change fast...

FF-CC--GG-G-C-G-C-D#D#-A#A#-D#-D#-FFCCF  REPEAT

Then the Gsus2 to Fsus2 riff twice to A#""""""""C""""""""

Bridge is very easy
E to a D then to a C

Listen to the song for the timing on the riffs.

I will be posting a video soon to show how its played.
Tap to rate this tab
 
# A B C D E F G H I J K L M N O P Q R S T U V W X Y Z