Song name
# A B C D E F G H I J K L M N O P Q R S T U V W X Y Z

Shinedown - I Dare You Acoustic tab

Well this is my first tab so sorry if i mess up.. but i hope you like it!

This is a great song by Shinedown, it's really simple to play and very fun.


Intro/verse:
[-------------------------------]
[-------------------------------]
[--6-6-6-9-9-9-6--6-6-6-4-4-4-4-]
[--7-7-7-7-7-7-7--4-4-4-4-4-4-4-]
[-------------------------------]
[-------------------------------]
 He plays this from the intro all the way till the line "paint me your canvas so i 
what you could never be"

pre chorus:
[----0---0--2-2-2----------------------------------]
[----0---0--2-2-2----------------------------------]
[--1-1-1-1--3-3-3--7-7-7-6-6-6-7-7-7-6-6-6-4-4-2-2-]
[--2---2----4-4-4--7-7-7-6-6-6-7-7-7-6-6-6-4-4-2-2-]
[--2---2----4-4-4--5-5-5-4-4-4-5-5-5-4-4-4-2-2-0-0-]
[--0---0----2-2-2----------------------------------]


[----0---0--2-2-2----------------------------------]
[----0---0--2-2-2----------------------------------]
[--1-1-1-1--3-3-3--7-7-7-7-7-7-7-7--4-4--4-4-4-2-2-]
[--2---2----4-4-4--7-7-7-7-7-7-7-7--4-4--4-4-4-2-2-]
[--2---2----4-4-4--5-5-5-5-5-5-5-5--2-2--2-2-2-0-0-]
[--0---0----2-2-2----------------------------------]

chorus:
[--0-0-0-0------------------------------------------------]
[--2-2-2-2------------------------------------------------]
[--2-2-2-2--6-6-6--7-7-7---------------------4-4-4--6-6-7~]
[--2-2-2-2--6-6-6--7-7-7-x2------------------4-4-4--6-6-7~]
[--0-0-0-0--4-4-4--5-5-5---------------------2-2-2--4-4-5~]
[---------------------------------------------------------]

play this where the solo would be
[----------]
[----------]
[--4-4-4-4-]
[--4-4-4-4-] just cycle through that a few times,  you can have fun with the strumming patterns.
[--2-2-0-2-]  and from here it leads into the intro verse then jumps straight to the chorus.
[----------]

Well that's the song it will help tremendously if you watch there live performances of 
Well i hope you like that tab! and have fun playing.
Tap to rate this tab
# A B C D E F G H I J K L M N O P Q R S T U V W X Y Z