Guitaretab - guitar tabs
Song name
# A B C D E F G H I J K L M N O P Q R S T U V W X Y Z

Shinedown - The Sound Of Madness tab

Sound of Madness
By: Shinedown
Transcribed by: Imorie Curry

Intro

E / --------------------------------------------------------------------|
B / --------------------------------------------------------------------|
G / --------------------------------------------------------------------|
D /  --6--6--6-5-3-----3------------------------------------------------|
A / ---------------5-----5-----5---5---5--5---5-------------------------|
D / ------------------------0----0---0--0---0---------------------------|

E / --------------------------------------------------------------------|
B / --------------------------------------------------------------------|
G / --------------------------------------------------------------------|
D /  --6--6--6-5-3-----3------------------------------------------------|
A / -----------------5-----5-----5---5---5--5---5-----------------------|
D / --------------------------0----0---0--0---0-------------------------|

E / --------------------------------------------------------------------|
B / --------------------------------------------------------------------|
G / --------------------------------------------------------------------|
D /  --6--6--6-5-3-----3------------------------------------------------|
A / ----------------5-----5-----5---5---5--5---5---5---5----------------|
D / -------------------------0----0---0--0---0---0---0------------------|

E / -------------------------------------------------------------------|
B / -------------------------------------------------------------------|
G / -------------------------------------------------------------------|
D /  --6--6--6-5-3-----3-----------------------------------------------|
A / ----------------5-----5-----5---5---5--5---5--6-6-6-6--------------|
D / -------------------------0----0---0--0---0----6-6-6-6--------------|

Verse
[ Tab from: http://www.guitaretab.com/s/shinedown/110343.html ]
E / --------------------------------------------------------------------|
B / --------------------------------------------------------------------|
G / --------------------------------------------------------------------|
D /  --3----------------------6-6-6-5-3---3-----------------------------|
A / -----5---5--5----5---5--5-----------5---5--5--5---6-6-6-6-5-5-3-3--|
D / -------0--0----0---0--0----------------0---0--0----6-6-6-6-5-5-3-3--|


E / --------------------------------------------------------------------|
B / --------------------------------------------------------------------|
G / --------------------------------------------------------------------|
D /  --3-----------------3------6-6-6-5-3---3---------------------------|
A / -----5---5----5----5---5--5-----------5---5--5-5-5-6-6-6-6-5-5-3-3--|
D / -------0----0----0------0------------------0--00--6-6-6-6-5-5-3-3--|

E / -------------------------------------------------------------------|
B / -------------------------------------------------------------------|
G / -------------------------------------------------------------------|
D /  --3-----------------3------6-6-6-5-3---3----------6-6-6-5-3-------|
A / -----5---5----5----5---5--5-----------5---5--5-5-5-----------5-----|
D / -------0----0----0------0------------------0--00------------------|


Chorus

E / --------------------------------------------------------------------|
B / --------------------------------------------------------------------|
G / -3-3-3-3-3-3-3-3----------------------------------------------------|
D / -3-3-3-3-3-3-3-3------------------------------------5-5-5-5-5-5-5-5-|
A / -1-1-1-1-1-1-1-1--0-0-0-0-0-0-0-0--3-3-3-3-3-3-3-3--3-3-3-3-3-3-3-3-|
D / ------------------0-0-0-0-0-0-0-0--3-3-3-3-3-3-3-3------------------|

E / --------------------------------------------------------------------|
B / --------------------------------------------------------------------|
G / -3-3-3-3-3-3-3-3----------------------------------------------------|
D / -3-3-3-3-3-3-3-3------------------------------------5-5-5-5-5-5-5-5-|
A / -1-1-1-1-1-1-1-1--0-0-0-0-0-0-0-0--3-3-3-3-3-3-3-3--3-3-3-3-3-3-3-3-|
D / ------------------0-0-0-0-0-0-0-0--3-3-3-3-3-3-3-3------------------|

Intro
Verse
Chorus
Verse
Chorus
Break Down
Chorus
Related for The Sound Of Madness tab