Song name
# A B C D E F G H I J K L M N O P Q R S T U V W X Y Z

Shinedown - Someday tab

============================================================================
Title: *Someday*
Artist: Shinedown
Album: Us and Them
============================================================================
Written by Brent Smith and Tony Battaglia 
Produced by 'Driven By Music' and 'Big Ant Music, BMI (ASCAP)' 
============================================================================
Label: Atlantic Records
Year: 2005
============================================================================
Track: -13-
============================================================================
Transcripted, Tablaturized, Formatted and Chorded by Asa Gaston
============================================================================
Tuning: STANDARD ( E-A-D-G-B-E )
============================================================================

----------------------------------------------------------------------------
Guitar I - Clean, Distorted -{ E-A-D-G-B-E }- Jasin Todd
----------------------------------------------------------------------------

============================================================================
INTRO\VERSE 1
============================================================================
0:00-

1.   Someday, when I'm older and they n e ver know my name. Somehow
     A                C#m             D               B     A
E|---0-----------------4----------------------2h3p2---2-------------------|
B|---2-----------------5------------------3-----------4--------------2h3p2|
G|---2-----------------6----------------2-------------4------------2------|
D|---2-----------------6--------------0---------------4---------2---------|
A|---0-----------------4------------------------------2-----0-------------|
E|---0-----------------4------------------------------2-------------------|


     if I'm ho    nest,   I could n e ver feel  ashamed. Maybe        I 
              C#m                 D             B
E|----------------------------------------2h3p2-2-2-2---------------------|
B|------------------5-----------------3---------4-4-4-----------2h3p2-----|
G|----------------6-----------------2-----------4-4-4---------2-----------|
D|--------------6-----------------0-------------4-4-4-------2-------------|
A|------------4---------------------------------2-2-2----0----------------|
E|----------------------------------------------2-2-2---------------------|


     was wrong to..      ..hold you up    so high. Now I        feel I've
           C#m             D                 B     A          
E|----------------------------------2--------2-2-2-------------------------|
B|----------------5-------------3------------4-4-4---------2h3p2-----------|
G|--------------6-------------2--------------4-4-4-------2-----------------|
D|------------6------------0-----------------4-4-4-----2-------------------|
A|---------4---------------------------------2-2-2-0-----------------------|
E|-------------------------------------------2-2-2-------------------------|


     lost you to the feelings I kept inside
    C#m              D               B
E|------------------------------2----2-2-2-2--2-2--------------------------|
B|----------5-----------------3------4-4-4-4--4-4--------------------------|
G|--------6-------------2------------4-4-4-4--4-4--------------------------|
D|-----6-------------0---------------4-4-4-4--4-4--------------------------|
A|---4-------------------------------2-2-2-2--2-2--------------------------|
E|-----------------------------------2-2-2-2--2-2--------------------------|
                                     D* 
============================================================================
CHORUS
============================================================================
0:43-

      I don't know if it felt like  I  wanted you here,     the way that I
              A                       C#m                       D
E|------------0----0--0--0-0--0---0-0--4--4---4---4---4-4-4-4---2---2----2-|
B|------------2----2--2--2-2--2---2-2--5--5---5---5---5-5-5-5---3---3----3-|
G|------------2----2--2--2-2--2---2-2--6--6---6---6---6-6-6-6---2---2----2-|
D|------------2----2--2--2-2--2---2-2--6--6---6---6---6-6-6-6---0---0----0-|
A|------------0----0--0--0-0--0---0-0--4--4---4---4---4-4-4-4--------------|
E|------------0----0--0--0-0--0---0-0--4--4---4---4---4-4-4-4--------------|


     wanted you last time.          We're not on the same page, you don't
     D               B        A6add9      A                        C#m
E|---2--2---2---2-2--2-2-2-2-2--2-2-2-----0---0--0---0-0--0---0-0---4------|
B|---3--3---3---3-3--4-4-4-4-4--2-4-2-----2---2--2---2-2--2---2-2---5------|
G|---2--2---2---2-2--4-4-4-4-4--2-4-2-----2---2--2---2-2--2---2-2---6------|
D|---0--0---0---0-0--4-4-4-4-4--2-4-2-----2---2--2---2-2--2---2-2---6------|
A|-------------------2-2-2-2-2--2-2-2-----0---0--0---0-0--0---0-0---4------|
E|-------------------2-2-2-2-2--2-2-2-----0---0--0---0-0--0---0-0---4------|


     e ven know me, cause you ne  ver took   the time
    C#m                       D                  B
E|---4-4---4--4-4-4-4---------2-2-2---2--2-2-2-2-2-------------------------|
B|---5-5---5--5-5-5-5---------3-3-3---3--3-3-3-3-4-------------------------|
G|---6-6---6--6-6-6-6---------2-2-2---2--2-2-2-2-4-------------------------|
D|---6-6---6--6-6-6-6---------0-0-0---0--0-0-0-0-4-------------------------|
A|---4-4---4--4-4-4-4----------------------------2-------------------------|
E|---4-4---4--4-4-4-4----------------------------2-------------------------|

============================================================================
VERSE 2
============================================================================
1:06-

2.   Someday,       when it's o   ver and you ne  ver show your face.  
     A                       C#m              D                 B
E|----------------------------------------------------2h3p2-----2---2-2----|
B|----------2h3p2-------------------5-------------3-------------4---4-4----|
G|----------------2---------------6-------------2---------------4---4-4----|
D|-------2----------------------6-------------0-----------------4---4-4----|
A|---0------------------------4---------------------------------2---2-2----|
E|--------------------------------------------------------------2---2-2----|
     C*

     I hope        you'lle reme  mber      how I tried to make you a place.
     A                      C#m                  D                   B     
E|--------------------------------------------------------2----------2-----|
B|---------2-------------------------5-----------------3-------3-----4--4--|
G|-------2---2-------------------6-----6-----------2---------------2-4-----|
D|-----2-------2---------------6---------6-------0-------------------4-----|
A|---0-----------0-----------4-------------4-------------------------2-----|
E|-------------------------------------------------------------------2-----|


     So now,      I move on         to keep my piece of mind.   In someway, 
     A             C#m                 D                B          A
E|---------------------------------------------2---------------------------|
B|----------2h3p2----------5----------------3-----------------4------------|
G|--------2--------------6---6-----------2------------------4------------2-|
D|------2-------------6--------6-------0------------------4------------2---|
A|---0--------------4------------4----------------------2----------0-------|
E|-------------------------------------------------------------------------|


           I failed you, but I just ran out    time.
            C#m                D               B 
E|--------------------------------------2h3p2--2---------------------------|
B|---2h3p2------------5-------------3----------4---------------------------|
G|------------------6------------2-------------4---------------------------|
D|-------------6---------------0---------------4---------------------------|
A|-----------4---------------------------------2---------------------------|
E|---------------------------------------------2---------------------------|
                                               D*
============================================================================
CHORUS
============================================================================
1:49-

      I don't know if it felt like  I  wanted you here,     the way that I
              A                       C#m                       D
E|------------0----0--0--0-0--0---0-0--4--4---4---4---4-4-4-4---2---2----2-|
B|------------2----2--2--2-2--2---2-2--5--5---5---5---5-5-5-5---3---3----3-|
G|------------2----2--2--2-2--2---2-2--6--6---6---6---6-6-6-6---2---2----2-|
D|------------2----2--2--2-2--2---2-2--6--6---6---6---6-6-6-6---0---0----0-|
A|------------0----0--0--0-0--0---0-0--4--4---4---4---4-4-4-4--------------|
E|------------0----0--0--0-0--0---0-0--4--4---4---4---4-4-4-4--------------|


     wanted you last time.          We're not on the same page, you don't
     D               B        A6add9      A                        C#m
E|---2--2---2---2-2--2-2-2-2-2--2-2-2-----0---0--0---0-0--0---0-0---4------|
B|---3--3---3---3-3--4-4-4-4-4--2-4-2-----2---2--2---2-2--2---2-2---5------|
G|---2--2---2---2-2--4-4-4-4-4--2-4-2-----2---2--2---2-2--2---2-2---6------|
D|---0--0---0---0-0--4-4-4-4-4--2-4-2-----2---2--2---2-2--2---2-2---6------|
A|-------------------2-2-2-2-2--2-2-2-----0---0--0---0-0--0---0-0---4------|
E|-------------------2-2-2-2-2--2-2-2-----0---0--0---0-0--0---0-0---4------|


     e ven know me, cause you ne  ver took   the time
    C#m                       D                  B
E|---4-4---4--4-4-4-4---------2-2-2---2--2-2-2-2-2-------------------------|
B|---5-5---5--5-5-5-5---------3-3-3---3--3-3-3-3-4-------------------------|
G|---6-6---6--6-6-6-6---------2-2-2---2--2-2-2-2-4-------------------------|
D|---6-6---6--6-6-6-6---------0-0-0---0--0-0-0-0-4-------------------------|
A|---4-4---4--4-4-4-4----------------------------2-------------------------|
E|---4-4---4--4-4-4-4----------------------------2-------------------------|

============================================================================
BRIDGE
============================================================================
2:12-

     I'm not sure that you hear   me.          I'm not sure that you look
     A                       C#m               A                       C#m
E|---0-0-0-0-0----0----0---0--4-4-4-4-4-4-4-4--0-0-0-0-0----0----0---0--4--|
B|---2-2-2-2-2----2----2---2--5-5-5-5-5-5-5-5--2-2-2-2-2----2----2---2--5--|
G|---2-2-2-2-2----2----2---2--6-6-6-6-6-6-6-6--2-2-2-2-2----2----2---2--6--|
D|---2-2-2-2-2----2----2---2--6-6-6-6-6-6-6-6--2-2-2-2-2----2----2---2--6--|
A|---0-0-0-0-0----0----0---0--4-4-4-4-4-4-4-4--0-0-0-0-0----0----0---0--4--|
E|---0-0-0-0-0----0----0---0--4-4-4-4-4-4-4-4--0-0-0-0-0----0----0---0--4--|
     PM---------------------}                  PM---------------------} 

    at me the same.        I   will always be a  tatched to you      but
       C#m                  A        D      E    C#m          
E|------4--4---4---4-4-4-4--0-0-0----5--5---7--7--4--4----4--4--4-4-4-4----|
B|------5--5---5---5-5-5-5--2-2-2----7--7---9--9--5--5----5--5--5-5-5-5----|
G|------6--6---6---6-6-6-6--2-2-2----7--7---9--9--6--6----6--6--6-6-6-6----|
D|------6--6---6---6-6-6-6--2-2-2----7--7---9--9--6--6----6--6--6-6-6-6----|
A|------4--4---4---4-4-4-4--0-0-0----5--5---7--7--4--4----4--4--4-4-4-4----|
E|------4--4---4---4-4-4-4--0-0-0----5--5---7--7--4--4----4--4--4-4-4-4----|


     I'm never gonna feel the same
         D                       B
E|-------2--2--2--2--2--2-2---2--2-2-2-2-2-2-------------------------------|
B|-------3--3--3--3--3--3-3---3--4-4-4-4-4-4-------------------------------|
G|-------2--2--2--2--2--2-2---2--4-4-4-4-4-4-------------------------------|
D|-------0--0--0--0--0--0-0---0--4-4-4-4-4-4-------------------------------|
A|-------------------------------2-2-2-2-2-2-------------------------------|
D|-------------------------------2-2-2-2-2-2-------------------------------|

============================================================================
CHORUS
============================================================================
2:34-

      I don't know if it felt like  I  wanted you here,     the way that I
              A                       C#m                       D
E|----2-2-----0----0--0--0-0--0---0-0--4--4---4---4---4-4-4-4---2---2----2-|
B|----4-4-----2----2--2--2-2--2---2-2--5--5---5---5---5-5-5-5---3---3----3-|
G|----4-4-----2----2--2--2-2--2---2-2--6--6---6---6---6-6-6-6---2---2----2-|
D|----4-4-----2----2--2--2-2--2---2-2--6--6---6---6---6-6-6-6---0---0----0-|
A|----2-2-----0----0--0--0-0--0---0-0--4--4---4---4---4-4-4-4--------------|
E|----2-2-----0----0--0--0-0--0---0-0--4--4---4---4---4-4-4-4--------------|


     wanted you last time.          We're not on the same page, you don't
     D               B        A6add9      A                        C#m
E|---2--2---2---2-2--2-2-2-2-2--2-2-2-----0---0--0---0-0--0---0-0---4------|
B|---3--3---3---3-3--4-4-4-4-4--2-4-2-----2---2--2---2-2--2---2-2---5------|
G|---2--2---2---2-2--4-4-4-4-4--2-4-2-----2---2--2---2-2--2---2-2---6------|
D|---0--0---0---0-0--4-4-4-4-4--2-4-2-----2---2--2---2-2--2---2-2---6------|
A|-------------------2-2-2-2-2--2-2-2-----0---0--0---0-0--0---0-0---4------|
E|-------------------2-2-2-2-2--2-2-2-----0---0--0---0-0--0---0-0---4------|


     e ven know me, cause you ne  ver took   the time
    C#m                       D                  B
E|---4-4---4--4-4-4-4---------2-2-2---2--2-2-2-2-2-------------------------|
B|---5-5---5--5-5-5-5---------3-3-3---3--3-3-3-3-4-------------------------|
G|---6-6---6--6-6-6-6---------2-2-2---2--2-2-2-2-4-------------------------|
D|---6-6---6--6-6-6-6---------0-0-0---0--0-0-0-0-4-------------------------|
A|---4-4---4--4-4-4-4----------------------------2-------------------------|
E|---4-4---4--4-4-4-4----------------------------2-------------------------|

============================================================================
OUTRO
============================================================================
2:56-

     No you ne  ver took   the  time. 
            D                   B
E|----------2-2-2---2--2-2-2-2--2------------------------------------------|
B|----------3-3-3---3--3-3-3-3--4------------------------------------------|
G|----------2-2-2---2--2-2-2-2--4------------------------------------------|
D|----------0-0-0---0--0-0-0-0--4------------------------------------------|
A|------------------------------2------------------------------------------|
E|------------------------------2------------------------------------------|


     Someday, when I'm older...
     A                C#m 
E|---0-----------------4---------------------------------------------------|
B|---2-----------------5---------------------------------------------------|
G|---2-----------------6---------------------------------------------------|
D|---2-----------------6---------------------------------------------------|
A|---0-----------------4---------------------------------------------------|
E|---0-----------------4---------------------------------------------------|

<><><><><><><><><><><><><><><><><><><><><><><><><><><><><><><><><><><><><><>
<><><><><><><><><><><><><><><><><><><><><><><><><><><><><><><><><><><><><><>
<><><><><><><><><><><><><><><><><><><><><><><><><><><><><><><><><><><><><><>
<><><><><><><><>
CHORD DIAGRAMS<>
<><><><><><><><>
         A*     C#m*     D*      B*    A6add9*   E* 
E|---|---0---|---4---|---2---|---2---|---2---|---7---|---------------------|
B|---|---2---|---5---|---3---|---4---|---2---|---9---|---------------------|
G|---|---2---|---6---|---2---|---4---|---2---|---9---|---------------------|
D|---|---2---|---6---|---0---|---4---|---2---|---9---|---------------------|
A|---|---0---|---4---|---x---|---2---|---2---|---7---|---------------------|
E|---|---0---|---4---|---x---|---2---|---2---|---7---|---------------------|

<><><><><><><><><><><><><><><><><><><><><><><><><><><><><><><><><><><><><><
Guitar Legend*
<><><><><><><><><><><><><><><><><><><><><><><><><><><><><><><><><><><><><><

 D*------------Distortion

 C*------------Clean

 h ------------Hammer-On

 p ------------Pull-Off

 b ------------Bend

 pb -----------Pre-Bend

 r ------------Bend Release ( if there is no number after r,
                                                     release immediately )
 / ------------Slide Into

 \ ------------Slide Out Of

 s ------------Legato Slide

 S ------------Shift Slide

 - ------------Natural Harmonic

 [n] ----------Artifitial Harmonic

 n[n] ---------Tapped Harmonic

 ~ ------------Vibrato

 tr -----------Trill

 T ------------Tap

 TR -----------Trem. Picking

 PM -----------Palm Muting

 \n/ ----------Tremolo Bar Dip; n - Amount to Dip

 \n -----------Tremolo Bar Down

 n/ -----------Tremolo Bar Up

 /n\ ----------Tremolo Bar Inverted Dip

 = ------------Hold Bend; Also Acts As Connecting Devise 
                                                For Hammer-Ons/Pull-Offs
 < ------------Volume Swell Louder

 > ------------Volume Swell Softer

 x ------------Muted Slash

 o ------------Single Note Slash

++++++++++++++++++++++++++++++++++++++++++++++++++++++++++++++++++++++++++++
NOTE: This is probably the Shinedown song you have to grow on the most.
      Playing it helped me like alot more to ( as does most other
      songs ). If you don't play bar chords, keep trying. You can play
      pretty much any bar chord, once you've learned one. If you still
      have'nt bought their 'Us and Them' cd, and you've heard this from the
      radio, GET IT!!! I can give you 13 reasons why you should
      1-Dream
      2-Heroes
      3-Save Me
      4-I Dare You
      5-Yer Majesty
      6-Beyond the Sun
      7-Trade YOURself In
      8-Lady So Divine
      9-Shed Some Light
      10-Begin Again
      11-Atmosphere
      12-Fake
      13-Someday

      Those are good enough reasons, aren't they? The hammer-ons are easy;
      So don't let them scare you away ( you beginners ).
      Well... ...ENJOY!!!

                          -Asa    
Tap to rate this tab
 
# A B C D E F G H I J K L M N O P Q R S T U V W X Y Z