Song name
# A B C D E F G H I J K L M N O P Q R S T U V W X Y Z

Shinedown - Fake tab

---------------------------------------------------------------------------
			     Fake - Shinedown
---------------------------------------------------------------------------
Tabbed by:-ConnerB-                             Please keep in mind this
Email:ConnerB317@yahoo.com                      is my third tab I've               
                                                submitted...
Tuning:Drop D (DADGBE)


Intro/Verse

e|-----------------------------|
B|---3--3--3--3--3-------------|
G|---5--5--5--5--4-------------|
D|---0--0--0--0--0----5--3--0--|
A|--------------------5--3--0--|
D|--------------------5--3--0--|x5

This place has begun...


Pre-Chorus

e|------------------------|
B|------------------------|
G|------------------------|
D|---0-0---0-0---0-0---5--|   
A|---0-0---0-0---0-0---5--|
D|---0-0---0-0---0-0---5--|x3

'Cause you don't know...

e|--------------------------------------------|
B|-----------------------------------------3--|
G|------------------------0--2--0--2--4--5----|
D|---0--2--4--2--4--5--4----------------------|
A|--------------------------------------------|
D|--------------------------------------------|

To reach for the sky...

Chorus

e|---------------------------------------------------------|
B|---------------------------------------------------------|
G|---------------------------------------------------------|
D|--12-12-12-12---12-12-12-12---14-14-14-14---11-11-11-11--|
A|--12-12-12-12---12-12-12-12---14-14-14-14---11-11-11-11--|
E|--12-12-12-12---12-12-12-12---14-14-14-14---11-11-11-11--|

But I'm bleeding...

e|---------------------------------------------------------|
B|---------------------------------------------------------|
G|---------------------------------------------------------|
D|--12-12-12-12---16-16-16-16---14-14-14-14---11-11-11-11--|
A|--12-12-12-12---16-16-16-16---14-14-14-14---11-11-11-11--|
E|--12-12-12-12---16-16-16-16---14-14-14-14---11-11-11-11--|

And I'm open...

e|-----------------------------|
B|---3--3--3--3--3-------------|
G|---5--5--5--5--4-------------|
D|---0--0--0--0--0----5--3--0--|
A|--------------------5--3--0--|
D|--------------------5--3--0--|x6

It's almost seeing your soul...

e|------------------------|
B|------------------------|
G|------------------------|
D|---0-0---0-0---0-0---5--|   
A|---0-0---0-0---0-0---5--|
D|---0-0---0-0---0-0---5--|x3

'Cause you don't know...

e|--------------------------------------------|
B|-----------------------------------------3--|
G|------------------------0--2--0--2--4--5----|
D|---0--2--4--2--4--5--4----------------------|
A|--------------------------------------------|
D|--------------------------------------------|

To reach for the sky...

e|---------------------------------------------------------|
B|---------------------------------------------------------|
G|---------------------------------------------------------|
D|--12-12-12-12---12-12-12-12---14-14-14-14---11-11-11-11--|
A|--12-12-12-12---12-12-12-12---14-14-14-14---11-11-11-11--|
E|--12-12-12-12---12-12-12-12---14-14-14-14---11-11-11-11--|

But I'm bleeding...

e|---------------------------------------------------------|
B|---------------------------------------------------------|
G|---------------------------------------------------------|
D|--12-12-12-12---16-16-16-16---14-14-14-14---11-11-11-11--|
A|--12-12-12-12---16-16-16-16---14-14-14-14---11-11-11-11--|
E|--12-12-12-12---16-16-16-16---14-14-14-14---11-11-11-11--|

And I'm open...


Bridge/Solo

e|-------------------------------------------------|
B|--7-7-7--9-9-9--10-10-10--12-12-12--14-14-14-14--|
G|-------------------------------------------------|
D|-------------------------------------------------|
A|-------------------------------------------------|
D|-------------------------------------------------|


                                                     (Really Fast Strumming)
e|---------------------------------------------------14-14-14-14-14-14-14--|
G|--4-4-4--6-6-6--7-7-7--9-9-9--11-11-11--12-12-12---14-14-14-14-14-14-14--|
B|-------------------------------------------------------------------------|
D|-------------------------------------------------------------------------|
A|-------------------------------------------------------------------------|
D|-------------------------------------------------------------------------|

I can't fake it...

e|--------------------------|
B|--------------------------|
G|-------0------0-----------|
D|-----0------0-------------|
A|---2------3------2--0-----|
D|-----------------------3--|


e|------------------------|
B|------------------------|
G|------------------------|
D|---0-0---0-0---0-0---5--|   
A|---0-0---0-0---0-0---5--|
D|---0-0---0-0---0-0---5--|x3

You don't know...

e|--------------------------------------------|
B|-----------------------------------------3--|
G|------------------------0--2--0--2--4--5----|
D|---0--2--4--2--4--5--4----------------------|
A|--------------------------------------------|
D|--------------------------------------------|

To reach for sky...

e|---------------------------------------------------------|
B|---------------------------------------------------------|
G|---------------------------------------------------------|
D|--12-12-12-12---12-12-12-12---14-14-14-14---11-11-11-11--|
A|--12-12-12-12---12-12-12-12---14-14-14-14---11-11-11-11--|
E|--12-12-12-12---12-12-12-12---14-14-14-14---11-11-11-11--|

But I'm bleeding...

e|---------------------------------------------------------|
B|---------------------------------------------------------|
G|---------------------------------------------------------|
D|--12-12-12-12---16-16-16-16---14-14-14-14---11-11-11-11--|
A|--12-12-12-12---16-16-16-16---14-14-14-14---11-11-11-11--|
E|--12-12-12-12---16-16-16-16---14-14-14-14---11-11-11-11--|

And I'm open...

e|---------------------------------------------------------|
B|---------------------------------------------------------|
G|---------------------------------------------------------|
D|--12-12-12-12---12-12-12-12---14-14-14-14---11-11-11-11--|
A|--12-12-12-12---12-12-12-12---14-14-14-14---11-11-11-11--|
E|--12-12-12-12---12-12-12-12---14-14-14-14---11-11-11-11--|

But I'm bleeding...

e|---------------------------------------------------------|
B|---------------------------------------------------------|
G|---------------------------------------------------------|
D|--12-12-12-12---16-16-16-16---14-14-14-14---11-11-11-11--|
A|--12-12-12-12---16-16-16-16---14-14-14-14---11-11-11-11--|
E|--12-12-12-12---16-16-16-16---14-14-14-14---11-11-11-11--|

And I'm open...

e|----------------------------------------------------------|
B|---3--3--3--3--3----------------3--3--3--3--3-------------|
G|---5--5--5--5--4----------------5--5--5--5--4-------------|
D|---0--0--0--0--0----5--3--0-----0--0--0--0--0----5--3--0--|
A|--------------------5--3--0----------------------5--3--0--|
D|--------------------5--3--0----------------------5--3--0--|
                                               (Let Ring)^



Hope you found what you needed...
Tap to rate this tab
# A B C D E F G H I J K L M N O P Q R S T U V W X Y Z