Song name
# A B C D E F G H I J K L M N O P Q R S T U V W X Y Z

Shinedown - Unity tab

Tuning: D (e B G D A D )

Intro

e|-------------------|
B|-------------------|
G|-----------5-------|
D|-7----3----5----5--|
A|-7----3----3----5--|
D|-7----3---------5--|

Verse 
Clean guitar

Am F Am G(look down) F 2x
   
   G
e|-3--
B|-3--
G|-0--
D|-0--
A|-2--
D|-x--

Pre-chorus
E.guitar
e|--------|2x---------|
B|--------|-----------|
G|----5---|-----------|
D|-3--5-5-|-3---------|
A|-3--3-5-|-3---------|
D|-3--x-5-|-3-(END PC)|

Chorus
e|-------------------|2x-then-(2x)-|----------|
B|-------------------|-------------|----------|
G|-----------5-------|----5--------|----------|
D|-7----3----5----5--|-3--5-5------|-7--5--3~-|
A|-7----3----3----5--|-3--3-5------|-7--5--3~-|
D|-7----3---------5--|-3--x-5------|-7--5--3~-|

Verse 2
Clean guitar
Am F Am G F 1x

Pre-chorus
E.guitar
e|--------|2x---------|
B|--------|-----------|
G|----5---|-----------|
D|-3--5-5-|-3---------|
A|-3--3-5-|-3---------|
D|-3--x-5-|-3-(END PC)|

Chorus
e|-------------------|2x-then-(2x)-|----------|
B|-------------------|-------------|----------|
G|-----------5-------|----5--------|----------|
D|-7----3----5----5--|-3--5-5------|-7--5--3~-|
A|-7----3----3----5--|-3--3-5------|-7--5--3~-|
D|-7----3---------5--|-3--x-5------|-7--5--3~-|

Solo: sorry but I don't know solo you must wait on oryginal ;)

 
Put your hands... on ends 
e|-----|
B|-----|
G|-----|
D|-777-|
A|-777-|
D|-777-|


Chorus
e|-------------------|2x-then-(2x)-|----------2x|END|
B|-------------------|-------------|------------|---|
G|-----------5-------|----5--------|------------|---|
D|-7----3----5----5--|-3--5-5------|-7--5--3~---|-3-|
A|-7----3----3----5--|-3--3-5------|-7--5--3~---|-3-|
D|-7----3---------5--|-3--x-5------|-7--5--3~---|-3-|

Tap to rate this tab
 
# A B C D E F G H I J K L M N O P Q R S T U V W X Y Z