Song name
# A B C D E F G H I J K L M N O P Q R S T U V W X Y Z

Shinedown - Unity tab

----------------------------------------------------------------------------
                                  Unity
                                Shinedown
----------------------------------------------------------------------------

What can I say about this song. Itís beautiful! I always gets my spirits up when Iím
down. Shinedown know how to write directly from the heart, and I can really relate to it.
Itís fun to play on the guitar and has an amazing melody. Enjoy!

Username: dkm817 (same on X box live)
Youtube Cover:
Email: guitardrums@rockfan.com

Guitar 1 Rhythmic (D A D G B E)
Guitar 2 Lead     (D A D G B E)
Guitar 3 Back up  (D A D G B E)


Tab Guide...

==================================================================
(end of measures)

==================================================================
==================================================================
(end of parts)

==================================================================
==================================================================
==================================================================
(end of song)

(If there is a ďcontinuedĒ it is because the numbers could not
fit on 1 line.)


Intro 1

Guitar 2 (Piano Part)
E-----20~~-|
B----------|
G-17~~~~~~-|
D----------|
A----------|
D----------|

==================================================================

Guitar 1 (Fade In)
E-3~~~~~~~~~~-3~~~~~~~~~~-3~~~~~~-3~~~~~~~~~~-3~~~~~~~~~~-3~~~~~~--|
B-----1~~-1~~~~~~-1~~-1~~~~~~-1~~~~~~-1~~-1~~~~~~-1~~-1~~~~~~-1~~~-|
G------------------------------------------------------------------|
D------------------------------------------------------------------|
A------------------------------------------------------------------|
D------------------------------------------------------------------|

Guitar 2
E-~~~~~~~~~~~~~~~~~~~~~~~~~~~-17~~~~~~~~~~~~~~~~~~~~~~~~~~~~~------|
B-------------------------------------------------------------18~~-|
G-~~~~~~~~~~~~~~~~~~~~~~~-17~~~~~~~~~~~~~~~~~~~~~~~~~~~~~-17~~~~~~-|
D------------------------------------------------------------------|
A------------------------------------------------------------------|
D------------------------------------------------------------------|

==================================================================

Guitar 1
E-3~~~~~~~~~~-3~~~~~~~~~~-3~~~~~~-3~~~~~~~~~~-3~~~~~~~~~~-3~~~~~~--|
B-----1~~-1~~~~~~-1~~-1~~~~~~-1~~~~~~-1~~-1~~~~~~-1~~-1~~~~~~-1~~~-|
G------------------------------------------------------------------|
D------------------------------------------------------------------|
A------------------------------------------------------------------|
D------------------------------------------------------------------|

Guitar 2
E-------------------------------------------------------------20~~-|
B-~~~~~~~~~~~~~~~~~~~~~~~~~~~-20~~~~~~~~~~~~~~~~~~~~~~~~~~~~~------|
G-~~~~~~~~~~~~~~~~~~~~~~~-17~~~~~~~~~~~~~~~~~~~~~~~~~~~~~-17~~~~~~-|
D------------------------------------------------------------------|
A------------------------------------------------------------------|
D------------------------------------------------------------------|

==================================================================

Guitar 1
E-3~~~~~~~~~~-3~~~~~~~~~~-3~~~~~~-3~~~~~~~~~~-3~~~~~~~~~~-3~~~~~~--|
B-----1~~-1~~~~~~-1~~-1~~~~~~-1~~~~~~-1~~-1~~~~~~-1~~-1~~~~~~-1~~~-|
G------------------------------------------------------------------|
D------------------------------------------------------------------|
A------------------------------------------------------------------|
D------------------------------------------------------------------|

Guitar 2
E-~~~~~~~~~~~~~~~~~~~~~~~~~~~-17~~~~~~~~~~~~~~~~~~~~~~~~~~~~~------|
B-------------------------------------------------------------18~~-|
G-~~~~~~~~~~~~~~~~~~~~~~~-17~~~~~~~~~~~~~~~~~~~~~~~~~~~~~-17~~~~~~-|
D------------------------------------------------------------------|
A------------------------------------------------------------------|
D------------------------------------------------------------------|

==================================================================

Guitar 1
E-3~~~~~~~~~~-3~~~~~~~~~~-3~~~~~~-3~~~~~~~~~~-3~~~~~~~~~~-3~~~~~~--|
B-----1~~-1~~~~~~-1~~-1~~~~~~-1~~~~~~-1~~-1~~~~~~-1~~-1~~~~~~-1~~~-|
G------------------------------------------------------------------|
D------------------------------------------------------------------|
A------------------------------------------------------------------|
D------------------------------------------------------------------|

Guitar 2
E-------------------------------------------------------------20~~-|
B-~~~~~~~~~~~~~~~~~~~~~~~~~~~-20~~~~~~~~~~~~~~~~~~~~~~~~~~~~~------|
G-~~~~~~~~~~~~~~~~~~~~~~~-17~~~~~~~~~~~~~~~~~~~~~~~~~~~~~-17~~~~~~-|
D------------------------------------------------------------------|
A------------------------------------------------------------------|
D------------------------------------------------------------------|

==================================================================
==================================================================


Intro 2

Guitar 1
E-----------------------------------------------------------------|
B-----------------------------------------------------------------|
G-----------------------------------------------------------------|
D-7---7---7---7---7---7---7---7---3---3---3---3---3---3---3---3---|
A-7---7---7---7---7---7---7---7---3---3---3---3---3---3---3---3---|
D-7---7---7---7---7---7---7---7---3---3---3---3---3---3---3---3---|

Guitar 2
E-~~~~~~~~~~~~~~~~~~~~~~~~~~~-17~~~~~~~~~~~~~~~~~~~~~~~~~~~~~------|
B-------------------------------------------------------------18~~-|
G-~~~~~~~~~~~~~~~~~~~~~~~-17~~~~~~~~~~~~~~~~~~~~~~~~~~~~~-17~~~~~~-|
D------------------------------------------------------------------|
A------------------------------------------------------------------|
D------------------------------------------------------------------|

==================================================================

Guitar 1
E-----------------------------------------------------------------|
B-----------------------------------------------------------------|
G-----------------------------------------------------------------|
D-0---0---0---0---0---0---0---0---3---3---3---3---3---3---3---3---|
A-0---0---0---0---0---0---0---0---3---3---3---3---3---3---3---3---|
D-0---0---0---0---0---0---0---0---3---3---3---3---3---3---3---3---|

Guitar 2
E-------------------------------------------------------------20~~-|
B-~~~~~~~~~~~~~~~~~~~~~~~~~~~-20~~~~~~~~~~~~~~~~~~~~~~~~~~~~~------|
G-~~~~~~~~~~~~~~~~~~~~~~~-17~~~~~~~~~~~~~~~~~~~~~~~~~~~~~-17~~~~~~-|
D------------------------------------------------------------------|
A------------------------------------------------------------------|
D------------------------------------------------------------------|

==================================================================

Guitar 1
E-----------------------------------------------------------------|
B-----------------------------------------------------------------|
G-----------------------------------------------------------------|
D-7---7---7---7---7---7---7---7---3---3---3---3---3---3---3---3---|
A-7---7---7---7---7---7---7---7---3---3---3---3---3---3---3---3---|
D-7---7---7---7---7---7---7---7---3---3---3---3---3---3---3---3---|

Guitar 2
E-~~~~~~~~~~~~~~~~~~~~~~~~~~~-17~~~~~~~~~~~~~~~~~~~~~~~~~~~~~------|
B-------------------------------------------------------------18~~-|
G-~~~~~~~~~~~~~~~~~~~~~~~-17~~~~~~~~~~~~~~~~~~~~~~~~~~~~~-17~~~~~~-|
D------------------------------------------------------------------|
A------------------------------------------------------------------|
D------------------------------------------------------------------|

==================================================================

Guitar 1
E-----------------------------------------------------------------|
B-----------------------------------------------------------------|
G-----------------------------------------------------------------|
D-0---0---0---0---0---0---0---0---3~~~~~~~~~~~~~~~~~~~~~~~~~~~~~~-|
A-0---0---0---0---0---0---0---0---3~~~~~~~~~~~~~~~~~~~~~~~~~~~~~~-|
D-0---0---0---0---0---0---0---0---3~~~~~~~~~~~~~~~~~~~~~~~~~~~~~~-|

Guitar 2
E-----------------------------------------------------------------|
B-~~~~~~~~~~~~~~~~~~~~~~~~~~~-20~~~~~~~~~~~~~~~~~~~~~~~~~~~~~~~~~-|
G-~~~~~~~~~~~~~~~~~~~~~~~-17~~~~~~~~~~~~~~~~~~~~~~~~~~~~~~~~~~~~~-|
D-----------------------------------------------------------------|
A-----------------------------------------------------------------|
D-----------------------------------------------------------------|

==================================================================
==================================================================


Verse 1

Guitar 1 (Clean)
E-0~~~~~~~~~~~~~~~~~~~~~~~~~~~~~~~~~~~~~~~~~~~~~~~~~~~~~~~~~~~~~~-|
B-0~~~~~~~~~~~~~~~~~~~~~~~~~~~~~~~~~~~~~~~~~~~~~~~~~~~~~~~~~~~~~~-|
G-2~~~~~~~~~~~~~~~~~~~~~~~~~~~~~~~~~~~~~~~~~~~~~~~~~~~~~~~~~~~~~~-|
D-2~~~~~~~~~~~~~~~~~~~~~~~~~~~~~~~~~~~~~~~~~~~~~~~~~~~~~~~~~~~~~~-|
A-0~~~~~~~~~~~~~~~~~~~~~~~~~~~~~~~~~~~~~~~~~~~~~~~~~~~~~~~~~~~~~~-|
D-----------------------------------------------------------------|

Guitar 2 (Orchestra)
E-----------------------------------------------------------------|
B-----------------------------------------------------------------|
G-9-------9-------9-------9-------9-------9-------9-------9-------|
D-----10------10------10------10------10------10------10------10--|
A-----------------------------------------------------------------|
D-----------------------------------------------------------------|
pm.   .   .   .   .   .   .   .   .   .   .   .   .   .   .   .

==================================================================

Guitar 1
E-0~~~~~~~~~~~~~~~~~~~~~~~~~~~~~~~~~~~~~~~~~~~~~~~~~~~~~~~~~~~~~~-|
B-0~~~~~~~~~~~~~~~~~~~~~~~~~~~~~~~~~~~~~~~~~~~~~~~~~~~~~~~~~~~~~~-|
G-2~~~~~~~~~~~~~~~~~~~~~~~~~~~~~~~~~~~~~~~~~~~~~~~~~~~~~~~~~~~~~~-|
D-3~~~~~~~~~~~~~~~~~~~~~~~~~~~~~~~~~~~~~~~~~~~~~~~~~~~~~~~~~~~~~~-|
A-3~~~~~~~~~~~~~~~~~~~~~~~~~~~~~~~~~~~~~~~~~~~~~~~~~~~~~~~~~~~~~~-|
D-----------------------------------------------------------------|

Guitar 2
E-----------------------------------------------------------------|
B-----------------------------------------------------------------|
G-10------10------10------10------10------10------10------10------|
D-----14------14------14------14------14------14------14------14--|
A-----------------------------------------------------------------|
D-----------------------------------------------------------------|
pm.   .   .   .   .   .   .   .   .   .   .   .   .   .   .   .

==================================================================

Guitar 1
E-0~~~~~~~~~~~~~~~~~~~~~~~~~~~~~~-3~~~~~~~~~~~~~~~~~~~~~~~~~~~~~~-|
B-0~~~~~~~~~~~~~~~~~~~~~~~~~~~~~~-0~~~~~~~~~~~~~~~~~~~~~~~~~~~~~~-|
G-2~~~~~~~~~~~~~~~~~~~~~~~~~~~~~~-2~~~~~~~~~~~~~~~~~~~~~~~~~~~~~~-|
D-2~~~~~~~~~~~~~~~~~~~~~~~~~~~~~~-3~~~~~~~~~~~~~~~~~~~~~~~~~~~~~~-|
A-0~~~~~~~~~~~~~~~~~~~~~~~~~~~~~~-3~~~~~~~~~~~~~~~~~~~~~~~~~~~~~~-|
D-----------------------------------------------------------------|

Guitar 2
E-----------------------------------------------------------------|
B-----------------------------------------------------------------|
G-9-------9-------9-------9-------7-------7-------7-------7-------|
D-----10------10------10------10------10------10------10------10--|
A-----------------------------------------------------------------|
D-----------------------------------------------------------------|
pm.   .   .   .   .   .   .   .   .   .   .   .   .   .   .   .

==================================================================

Guitar 1
E-0~~~~~~~~~~~~~~~~~~~~~~~~~~~~~~~~~~~~~~~~~~~~~~~~~~~~~~~~~~~~~~-|
B-0~~~~~~~~~~~~~~~~~~~~~~~~~~~~~~~~~~~~~~~~~~~~~~~~~~~~~~~~~~~~~~-|
G-2~~~~~~~~~~~~~~~~~~~~~~~~~~~~~~~~~~~~~~~~~~~~~~~~~~~~~~~~~~~~~~-|
D-3~~~~~~~~~~~~~~~~~~~~~~~~~~~~~~~~~~~~~~~~~~~~~~~~~~~~~~~~~~~~~~-|
A-3~~~~~~~~~~~~~~~~~~~~~~~~~~~~~~~~~~~~~~~~~~~~~~~~~~~~~~~~~~~~~~-|
D-----------------------------------------------------------------|

Guitar 2
E-----------------------------------------------------------------|
B-----------------------------------------------------------------|
G-----------------------------------------------------------------|
D-9-------9-------9-------9-------9-------9-------9-------9-------|
A-----12------12------12------12------12------12------12------12--|
D-----------------------------------------------------------------|

pm.   .   .   .   .   .   .   .   .   .   .   .   .   .   .   .

==================================================================

Guitar 1
E-0~~~~~~~~~~~~~~~~~~~~~~~~~~~~~~~~~~~~~~~~~~~~~~~~~~~~~~~~~~~~~~-|
B-0~~~~~~~~~~-0~~~~~~~~~~~~~~~~~~~~~~~~~~~~~~~~~~~~~~~~~~~~~~~~~~-|
G-2~~~~~~~~~~~~~~~~~~~~~~~~~~~~~~~~~~~~~~~~~~~~~~~~~~~~~~~~~~~~~~-|
D-2~~~~~~~~~~~~~~~~~~~~~~~~~~~~~~~~~~~~~~~~~~~~~~~~~~~~~~~~~~~~~~-|
A-0~~~~~~~~~~~~~~~~~~~~~~~~~~~~~~~~~~~~~~~~~~~~~~~~~~~~~~~~~~~~~~-|
D-----------------------------------------------------------------|

Guitar 2
E-----------------------------------------------------------------|
B-----------------------------------------------------------------|
G-9-------9-------9-------9-------9-------9-------9-------9-------|
D-----10------10------10------10------10------10------10------10--|
A-----------------------------------------------------------------|
D-----------------------------------------------------------------|
pm.   .   .   .   .   .   .   .   .   .   .   .   .   .   .   .

==================================================================

Guitar 1
E-0~~~~~~~~~~~~~~~~~~~~~~~~~~~~~~~~~~~~~~~~~~~~~~~~~~~~~~~~~~~~~~-
B-0~~~~~~~~~~-0~~~~~~~~~~~~~~~~~~~~~~~~~~~~~~~~~~~~~~~~~~~~~~~~~~-
G-2~~~~~~~~~~~~~~~~~~~~~~~~~~~~~~~~~~~~~~~~~~~~~~~~~~~~~~~~~~~~~~-
D-3~~~~~~~~~~~~~~~~~~~~~~~~~~~~~~~~~~~~~~~~~~~~~~~~~~~~~~~~~~~~~~-
A-3~~~~~~~~~~~~~~~~~~~~~~~~~~~~~~~~~~~~~~~~~~~~~~~~~~~~~~~~~~~~~~-
D-----------------------------------------------------------------

Guitar 2
E-----------------------------------------------------------------|
B-----------------------------------------------------------------|
G-10------10------10------10------10------10------10------10------|
D-----14------14------14------14------14------14------14------14--|
A-----------------------------------------------------------------|
D-----------------------------------------------------------------|
pm.   .   .   .   .   .   .   .   .   .   .   .   .   .   .   .

==================================================================

Guitar 1
E-0~~~~~~~~~~~~~~~~~~~~~~~~~~~~~~-3~~~~~~~~~~~~~~~~~~~~~~~~~~~~~~-|
B-0~~~~~~~~~~-0~~~~~~~~~~~~~~~~~~-0~~~~~~~~~~-0~~~~~~~~~~~~~~~~~~-|
G-2~~~~~~~~~~~~~~~~~~~~~~~~~~~~~~-2~~~~~~~~~~~~~~~~~~~~~~~~~~~~~~-|
D-2~~~~~~~~~~~~~~~~~~~~~~~~~~~~~~-3~~~~~~~~~~~~~~~~~~~~~~~~~~~~~~-|
A-0~~~~~~~~~~~~~~~~~~~~~~~~~~~~~~-3~~~~~~~~~~~~~~~~~~~~~~~~~~~~~~-|
D-----------------------------------------------------------------|

Guitar 2
E-----------------------------------------------------------------|
B-----------------------------------------------------------------|
G-14------14------14------14------14------14------12------12------|
D-----14------14------14------14------14------14------14------14--|
A-----------------------------------------------------------------|
D-----------------------------------------------------------------|
pm.   .   .   .   .   .   .   .   .   .   .   .   .   .   .   .

==================================================================

Guitar 1
E-0~~~~~~~~~~-0~~~~~~~~~~~~~~~~~~~~~~~~~~~~~~~~~~~~~~~~~~~~~~~~~~-
B-0~~~~~~~~~~~~~~~~~~-0~~~~~~~~~~~~~~~~~~~~~~~~~~~~~~~~~~~~~~~~~~-
G-2~~~~~~~~~~~~~~~~~~~~~~~~~~~~~~~~~~~~~~~~~~~~~~~~~~~~~~~~~~~~~~-
D-3~~~~~~~~~~~~~~~~~~~~~~~~~~~~~~~~~~~~~~~~~~~~~~~~~~~~~~~~~~~~~~-
A-3~~~~~~~~~~~~~~~~~~~~~~~~~~~~~~~~~~~~~~~~~~~~~~~~~~~~~~~~~~~~~~-
D-----------------------------------------------------------------

Guitar 2
E-----------------------------------------------------------------|
B-----------------------------------------------------------------|
G-10------10------10------10------10------10------10--10--10--12--|
D-----14------14------14------14------14------14------------------|
A-----------------------------------------------------------------|
D-----------------------------------------------------------------|
pm.   .   .   .   .   .   .   .   .   .   .   .   .   .   .   .

==================================================================
==================================================================


Pre Chorus

Guitar 1 & 2
E---------------------------------3---3---3-----------------------|
B-6~~~~~~~~~~~~~~~~~~~~~~~~~~~~~~-3---3---3---8---8---8---8---8---|
G-5~~~~~~~~~~~~~~~~~~~~~~~~~~~~~~-5---5---5---7---7---7---7---7---|
D-3~~~~~~~~~~~~~~~~~~~~~~~~~~~~~~-5---5---5---5---5---5---5---5---|
A-3~~~~~~~~~~~~~~~~~~~~~~~~~~~~~~-3---3---3---5---5---5---5---5---|
D-3~~~~~~~~~~~~~~~~~~~~~~~~~~~~~~-------------5---5---5---5---5---|

==================================================================

Guitar 1 & 2
E---------------------------------3---3---3-----------------------|
B-6~~~~~~~~~~~~~~~~~~~~~~~~~~~~~~-3---3---3---8---8---8---8---8---|
G-5~~~~~~~~~~~~~~~~~~~~~~~~~~~~~~-5---5---5---7---7---7---7---7---|
D-3~~~~~~~~~~~~~~~~~~~~~~~~~~~~~~-5---5---5---5---5---5---5---5---|
A-3~~~~~~~~~~~~~~~~~~~~~~~~~~~~~~-3---3---3---5---5---5---5---5---|
D-3~~~~~~~~~~~~~~~~~~~~~~~~~~~~~~-------------5---5---5---5---5---|

==================================================================

Guitar 1
E-----------------------------------------------------------------|
B-6~~~~~~~~~~~~~~~~~~~~~~~~~~~~~~---------------------------------|
G-5~~~~~~~~~~~~~~~~~~~~~~~~~~~~~~---------------------------------|
D-3~~~~~~~~~~~~~~~~~~~~~~~~~~~~~~-3---3---3---3---3---3---3---3---|
A-3~~~~~~~~~~~~~~~~~~~~~~~~~~~~~~-3---3---3---3---3---3---3---3---|
D-3~~~~~~~~~~~~~~~~~~~~~~~~~~~~~~-3---3---3---3---3---3---3---3---|

Guitar 2 (Orchestra)
E-------------------------------------------------------------20~~-|
B------------------------------------------------------------------|
G-----9---10------9---10------9---10------9---10--12------17~~~~~~-|
D-10----------10----------10----------10---------------------------|
A------------------------------------------------------------------|
D------------------------------------------------------------------|

==================================================================
==================================================================


Chorus

Guitar 1
E-----------------------------------------------------------------|
B-----------------------------------------------------------------|
G-----------------------------------------------------------------|
D-7---7---7---7---7---7---7---7---3---3---3---3---3---3---3---3---|
A-7---7---7---7---7---7---7---7---3---3---3---3---3---3---3---3---|
D-7---7---7---7---7---7---7---7---3---3---3---3---3---3---3---3---|

Guitar 2
E-~~~~~~~~~~~~~~~~~~~~~~~~~~~-17~~~~~~~~~~~~~~~~~~~~~~~~~~~~~------|
B-------------------------------------------------------------20~~-|
G-~~~~~~~~~~~~~~~~~~~~~~~-17~~~~~~~~~~~~~~~~~~~~~~~~~~~~~-17~~~~~~-|
D------------------------------------------------------------------|
A------------------------------------------------------------------|
D------------------------------------------------------------------|

==================================================================

Guitar 1
E-----------------------------------------------------------------|
B-----------------------------------------------------------------|
G-5---5---5---5---5---5---5---5-----------------------------------|
D-5---5---5---5---5---5---5---5---5---5---5---5---5---5---5---5---|
A-3---3---3---3---3---3---3---3---5---5---5---5---5---5---5---5---|
D---------------------------------5---5---5---5---5---5---5---5---|

Guitar 2
E-----------------------------19~~~~~~~~~~~~~~~~~~~~~~~~~~~~~-20~~-|
B-~~~~~~~~~~~~~~~~~~~~~~~~~~~--------------------------------------|
G-~~~~~~~~~~~~~~~~~~~~~~~-17~~~~~~~~~~~~~~~~~~~~~~~~~~~~~-17~~~~~~-|
D------------------------------------------------------------------|
A------------------------------------------------------------------|
D------------------------------------------------------------------|

==================================================================

Guitar 1
E-----------------------------------------------------------------|
B-----------------------------------------------------------------|
G-----------------------------------------------------------------|
D-7---7---7---7---7---7---7---7---3---3---3---3---3---3---3---3---|
A-7---7---7---7---7---7---7---7---3---3---3---3---3---3---3---3---|
D-7---7---7---7---7---7---7---7---3---3---3---3---3---3---3---3---|

Guitar 2
E-~~~~~~~~~~~~~~~~~~~~~~~~~~~-17~~~~~~~~~~~~~~~~~~~~~~~~~~~~~------|
B-------------------------------------------------------------20~~-|
G-~~~~~~~~~~~~~~~~~~~~~~~-17~~~~~~~~~~~~~~~~~~~~~~~~~~~~~-17~~~~~~-|
D------------------------------------------------------------------|
A------------------------------------------------------------------|
D------------------------------------------------------------------|

==================================================================

Guitar 1
E-----------------------------------------------------------------|
B-----------------------------------------------------------------|
G-5---5---5---5---5---5---5---5-----------------------------------|
D-5---5---5---5---5---5---5---5---5---5---5---5---5---5---5---5---|
A-3---3---3---3---3---3---3---3---5---5---5---5---5---5---5---5---|
D---------------------------------5---5---5---5---5---5---5---5---|

Guitar 2
E-----------------------------------------------------------------
B-~~~~~~~~~~~~~~~~~~~~~~~~~~~-15~~~~~~~~~~~~~~~~~~~~~~~~~~~~~~~~~-
G-~~~~~~~~~~~~~~~~~~~~~~~-17~~~~~~~~~~~~~~~~~~~~~~~~~~~~~~~~~~~~~-
D-----------------------------------------------------------------|
A-----------------------------------------------------------------|
D-----------------------------------------------------------------|

==================================================================

Guitar 1 & 2
E-----------------------------------------------------------------|
B-----------------------------------------------------------------|
G---------------------------------5---5---5-----------------------|
D-3---3---3---3---3---3---3---3---5---5---5---5---5---5---5---5---|
A-3---3---3---3---3---3---3---3---3---3---3---5---5---5---5---5---|
D-3---3---3---3---3---3---3---3---------------5---5---5---5---5---|

==================================================================

Guitar 1
E-----------------------------------------------------------------|
B-----------------------------------------------------------------|
G---------------------------------5---5---5-----------------------|
D-3---3---3---3---3---3---3---3---5---5---5---5---5---5---5---5---|
A-3---3---3---3---3---3---3---3---3---3---3---5---5---5---5---5---|
D-3---3---3---3---3---3---3---3---------------5---5---5---5---5---|

Guitar 2
E-------------------------------------------------------------20~~-|
B------------------------------------------------------------------|
G---------------------------------5---5---5---------------17~~~~~~-|
D-3---3---3---3---3---3---3---3---5---5---5---5---5---5------------|
A-3---3---3---3---3---3---3---3---3---3---3---5---5---5------------|
D-3---3---3---3---3---3---3---3---------------5---5---5------------|

==================================================================

Guitar 1
E-----------------------------------------------------------------|
B-----------------------------------------------------------------|
G-----------------------------------------------------------------|
D-7---7---7---7---7---7---7---7---5---5---5---5---5---5---5---5---|
A-7---7---7---7---7---7---7---7---5---5---5---5---5---5---5---5---|
D-7---7---7---7---7---7---7---7---5---5---5---5---5---5---5---5---|

Guitar 2
E-~~~~~~~~~~~~~~~~~~~~~~~~~~~-17~~~~~~~~~~~~~~~~~~~~~~~~~~~~~------|
B-------------------------------------------------------------20~~-|
G-~~~~~~~~~~~~~~~~~~~~~~~-17~~~~~~~~~~~~~~~~~~~~~~~~~~~~~-17~~~~~~-|
D------------------------------------------------------------------|
A------------------------------------------------------------------|
D------------------------------------------------------------------|

==================================================================

Guitar 1
E-----------------------------------------------------------------|
B-----------------------------------------------------------------|
G-----------------------------------------------------------------|
D-3---3---3---3---3---3---3---3---3~~~~~~~~~~~~~~~~~~~~~~~~~~~~~~-|
A-3---3---3---3---3---3---3---3---3~~~~~~~~~~~~~~~~~~~~~~~~~~~~~~-|
D-3---3---3---3---3---3---3---3---3~~~~~~~~~~~~~~~~~~~~~~~~~~~~~~-|

Guitar 2
E-----------------------------------------------------------------|
B-~~~~~~~~~~~~~~~~~~~~~~~~~~~~~~~~~~~~~~~~~~~~~~~~~~~~~~~~~~~~~~~-|
G-~~~~~~~~~~~~~~~~~~~~~~~~~~~~~~~~~~~~~~~~~~~~~~~~~~~~~~~~~~~~~~~-|
D-----------------------------------------------------------------|
A-----------------------------------------------------------------|
D-----------------------------------------------------------------|

==================================================================
==================================================================


Verse 2

Guitar 1
E---------0~~~~~~~~~~~~~~~~~~~~~~~~~~~~~~~~~~~~~~~~~~~~~~~~~~~~~~-|
B-------------0~~~~~~~~~~~~~~~~~~~~~~~~~~~~~~~~~~~~~~~~~~~~~~~~~~-|
G-----12~~~~~~~~~~~~~~~~~~~~~~~~~~~~~~~~~~~~~~~~~~~~~~~~~~~~~~~~~-|
D-10~~~~~~~~~~~~~~~~~~~~~~~~~~~~~~~~~~~~~~~~~~~~~~~~~~~~~~~~~~~~~-
A-----------------------------------------------------------------|
D-----------------------------------------------------------------|

Guitar 2
E-----------------------------------------------------------------|
B-----------------------------------------------------------------|
G-9-------9-------9-------9-------9-------9-------9-------9-------|
D-----10------10------10------10------10------10------10------10--|
A-----------------------------------------------------------------|
D-----------------------------------------------------------------|
pm.   .   .   .   .   .   .   .   .   .   .   .   .   .   .   .

Guitar 3
E-----------------------------------------------------------------|
B-----------------------------------------------------------------|
G-----------------------------------------------------------------|
D-----------------------------------------------------------------|
A-7-7-7-7-7-7-7-7-7-7-7-7-7-7-7-7-7-7-7-7-7-7-7-7-7-7-7-7-7-7-7-7-|
D-7-7-7-7-7-7-7-7-7-7-7-7-7-7-7-7-7-7-7-7-7-7-7-7-7-7-7-7-7-7-7-7-|
pm. . . . . . . . . . . . . . . . . . . . . . . . . . . . . . . .

==================================================================

Guitar 1
E---------0~~~~~~~~~~~~~~~~~~~~~~~~~~~~~~~~~~~~~~~~~~~~~~~~~~~~~~-|
B-------------0~~~~~~~~~~~~~~~~~~~~~~~~~~~~~~~~~~~~~~~~~~~~~~~~~~-|
G-----12~~~~~~~~~~~~~~~~~~~~~~~~~~~~~~~~~~~~~~~~~~~~~~~~~~~~~~~~~-|
D-10~~~~~~~~~~~~~~~~~~~~~~~~~~~~~~~~~~~~~~~~~~~~~~~~~~~~~~~~~~~~~-
A-----------------------------------------------------------------|
D-----------------------------------------------------------------|

Guitar 2
E-----------------------------------------------------------------|
B-----------------------------------------------------------------|
G-10------10------10------10------10------10------10------10------|
D-----14------14------14------14------14------14------14------14--|
A-----------------------------------------------------------------|
D-----------------------------------------------------------------|
pm.   .   .   .   .   .   .   .   .   .   .   .   .   .   .   .

Guitar 3
E-----------------------------------------------------------------|
B-----------------------------------------------------------------|
G-----------------------------------------------------------------|
D-----------------------------------------------------------------|
A-3-3-3-3-3-3-3-3-3-3-3-3-3-3-3-3-3-3-3-3-3-3-3-3-3-3-3-3-3-3-3-3-|
D-3-3-3-3-3-3-3-3-3-3-3-3-3-3-3-3-3-3-3-3-3-3-3-3-3-3-3-3-3-3-3-3-|
pm. . . . . . . . . . . . . . . . . . . . . . . . . . . . . . . .


==================================================================

Guitar 1
E---------0~~~~~~~~~~~~~~~~~~~~~~~~~~~~~~~~~~-0~~~~~~~~~~~~~~~~~~-|
B-------------0~~~~~~~~~~~~~~~~~~~~~~~~~~-0~~~~~~~~~~~~~~~~~~~~~~-|
G-----12~~~~~~~~~~~~~~~~~~~~~~~~~~~~~-12~~~~~~~~~~~~~~~~~~~~~~~~~-|
D-10~~~~~~~~~~~~~~~~~~~~~~~~~~~~~-10~~~~~~~~~~~~~~~~~~~~~~~~~~~~~-|
A-----------------------------------------------------------------|
D-----------------------------------------------------------------|

Guitar 2
E-----------------------------------------------------------------|
B-----------------------------------------------------------------|
G-14------14------14------14------14------14------12------12------|
D-----14------14------14------14------14------14------14------14--|
A-----------------------------------------------------------------|
D-----------------------------------------------------------------|
pm.   .   .   .   .   .   .   .   .   .   .   .   .   .   .   .

Guitar 3
E-----------------------------------------------------------------|
B-----------------------------------------------------------------|
G-----------------------------------------------------------------|
D-----------------------------------------------------------------|
A-7-7-7-7-7-7-7-7-7-7-7-7-7-7-7-7-5-5-5-5-5-5-5-5-5-5-5-5-5-5-5-5-|
D-7-7-7-7-7-7-7-7-7-7-7-7-7-7-7-7-5-5-5-5-5-5-5-5-5-5-5-5-5-5-5-5-|
pm. . . . . . . . . . . . . . . . . . . . . . . . . . . . . . . .

==================================================================

Guitar 1
E---------0~~~~~~~~~~~~~~~~~~~~~~~~~~~~~~~~~~~~~~~~~~~~~~~~~~~~~~-|
B-------------0~~~~~~~~~~~~~~~~~~~~~~~~~~~~~~~~~~~~~~~~~~~~~~~~~~-|
G-----10~~~~~~~~~~~~~~~~~~~~~~~~~~~~~~~~~~~~~~~~~~~~~~~~~~~~~~~~~-|
D-9~~~~~~~~~~~~~~~~~~~~~~~~~~~~~~~~~~~~~~~~~~~~~~~~~~~~~~~~~~~~~~-
A-----------------------------------------------------------------|
D-----------------------------------------------------------------|

Guitar 2
E-----------------------------------------------------------------|
B-----------------------------------------------------------------|
G-10------10------10------10------10------10------10--10--10--12--|
D-----14------14------14------14------14------14------------------|
A-----------------------------------------------------------------|
D-----------------------------------------------------------------|
pm.   .   .   .   .   .   .   .   .   .   .   .   .   .   .   .

Guitar 3
E-----------------------------------------------------------------|
B-----------------------------------------------------------------|
G-----------------------------------------------------------------|
D-----------------------------------------------------------------|
A-3-3-3-3-3-3-3-3-3-3-3-3-3-3-3-3-3-3-3-3-3-3-3-3-3-3-3-3-3-3-3-3-|
D-3-3-3-3-3-3-3-3-3-3-3-3-3-3-3-3-3-3-3-3-3-3-3-3-3-3-3-3-3-3-3-3-|
pm. . . . . . . . . . . . . . . . . . . . . . . . . . . . . . . .

==================================================================
==================================================================


Pre Chorus

Guitar 1 & 2
E---------------------------------3---3---3-----------------------|
B-6~~~~~~~~~~~~~~~~~~~~~~~~~~~~~~-3---3---3---8---8---8---8---8---|
G-5~~~~~~~~~~~~~~~~~~~~~~~~~~~~~~-5---5---5---7---7---7---7---7---|
D-3~~~~~~~~~~~~~~~~~~~~~~~~~~~~~~-5---5---5---5---5---5---5---5---|
A-3~~~~~~~~~~~~~~~~~~~~~~~~~~~~~~-3---3---3---5---5---5---5---5---|
D-3~~~~~~~~~~~~~~~~~~~~~~~~~~~~~~-------------5---5---5---5---5---|

==================================================================

Guitar 1 & 2
E---------------------------------3---3---3-----------------------|
B-6~~~~~~~~~~~~~~~~~~~~~~~~~~~~~~-3---3---3---8---8---8---8---8---|
G-5~~~~~~~~~~~~~~~~~~~~~~~~~~~~~~-5---5---5---7---7---7---7---7---|
D-3~~~~~~~~~~~~~~~~~~~~~~~~~~~~~~-5---5---5---5---5---5---5---5---|
A-3~~~~~~~~~~~~~~~~~~~~~~~~~~~~~~-3---3---3---5---5---5---5---5---|
D-3~~~~~~~~~~~~~~~~~~~~~~~~~~~~~~-------------5---5---5---5---5---|

==================================================================

Guitar 1
E-----------------------------------------------------------------|
B-6~~~~~~~~~~~~~~~~~~~~~~~~~~~~~~---------------------------------|
G-5~~~~~~~~~~~~~~~~~~~~~~~~~~~~~~---------------------------------|
D-3~~~~~~~~~~~~~~~~~~~~~~~~~~~~~~-3---3---3---3---3---3---3---3---|
A-3~~~~~~~~~~~~~~~~~~~~~~~~~~~~~~-3---3---3---3---3---3---3---3---|
D-3~~~~~~~~~~~~~~~~~~~~~~~~~~~~~~-3---3---3---3---3---3---3---3---|

Guitar 2 (Orchestra)
E-------------------------------------------------------------20~~-|
B------------------------------------------------------------------|
G-----9---10------9---10------9---10------9---10--12------17~~~~~~-|
D-10----------10----------10----------10---------------------------|
A------------------------------------------------------------------|
D------------------------------------------------------------------|

==================================================================
==================================================================


Chorus

Guitar 1
E-----------------------------------------------------------------|
B-----------------------------------------------------------------|
G-----------------------------------------------------------------|
D-7---7---7---7---7---7---7---7---3---3---3---3---3---3---3---3---|
A-7---7---7---7---7---7---7---7---3---3---3---3---3---3---3---3---|
D-7---7---7---7---7---7---7---7---3---3---3---3---3---3---3---3---|

Guitar 2
E-~~~~~~~~~~~~~~~~~~~~~~~~~~~-17~~~~~~~~~~~~~~~~~~~~~~~~~~~~~------|
B-------------------------------------------------------------20~~-|
G-~~~~~~~~~~~~~~~~~~~~~~~-17~~~~~~~~~~~~~~~~~~~~~~~~~~~~~-17~~~~~~-|
D------------------------------------------------------------------|
A------------------------------------------------------------------|
D------------------------------------------------------------------|

==================================================================

Guitar 1
E-----------------------------------------------------------------|
B-----------------------------------------------------------------|
G-5---5---5---5---5---5---5---5-----------------------------------|
D-5---5---5---5---5---5---5---5---5---5---5---5---5---5---5---5---|
A-3---3---3---3---3---3---3---3---5---5---5---5---5---5---5---5---|
D---------------------------------5---5---5---5---5---5---5---5---|

Guitar 2
E-----------------------------19~~~~~~~~~~~~~~~~~~~~~~~~~~~~~-20~~-|
B-~~~~~~~~~~~~~~~~~~~~~~~~~~~--------------------------------------|
G-~~~~~~~~~~~~~~~~~~~~~~~-17~~~~~~~~~~~~~~~~~~~~~~~~~~~~~-17~~~~~~-|
D------------------------------------------------------------------|
A------------------------------------------------------------------|
D------------------------------------------------------------------|

==================================================================

Guitar 1
E-----------------------------------------------------------------|
B-----------------------------------------------------------------|
G-----------------------------------------------------------------|
D-7---7---7---7---7---7---7---7---3---3---3---3---3---3---3---3---|
A-7---7---7---7---7---7---7---7---3---3---3---3---3---3---3---3---|
D-7---7---7---7---7---7---7---7---3---3---3---3---3---3---3---3---|

Guitar 2
E-~~~~~~~~~~~~~~~~~~~~~~~~~~~-17~~~~~~~~~~~~~~~~~~~~~~~~~~~~~------|
B-------------------------------------------------------------20~~-|
G-~~~~~~~~~~~~~~~~~~~~~~~-17~~~~~~~~~~~~~~~~~~~~~~~~~~~~~-17~~~~~~-|
D------------------------------------------------------------------|
A------------------------------------------------------------------|
D------------------------------------------------------------------|

==================================================================

Guitar 1
E-----------------------------------------------------------------|
B-----------------------------------------------------------------|
G-5---5---5---5---5---5---5---5-----------------------------------|
D-5---5---5---5---5---5---5---5---5---5---5---5---5---5---5---5---|
A-3---3---3---3---3---3---3---3---5---5---5---5---5---5---5---5---|
D---------------------------------5---5---5---5---5---5---5---5---|

Guitar 2
E-----------------------------------------------------------------|
B-~~~~~~~~~~~~~~~~~~~~~~~~~~~-15~~~~~~~~~~~~~~~~~~~~~~~~~~~~~~~~~-|
G-~~~~~~~~~~~~~~~~~~~~~~~-17~~~~~~~~~~~~~~~~~~~~~~~~~~~~~~~~~~~~~-|
D-----------------------------------------------------------------|
A-----------------------------------------------------------------|
D-----------------------------------------------------------------|

==================================================================

Guitar 1
E-----------------------------------------------------------------|
B-----------------------------------------------------------------|
G---------------------------------5---5---5-----------------------|
D-3---3---3---3---3---3---3---3---5---5---5---5---5---5---5---5---|
A-3---3---3---3---3---3---3---3---3---3---3---5---5---5---5---5---|
D-3---3---3---3---3---3---3---3---------------5---5---5---5---5---|

Guitar 2
E-------------------------------------------------------------20~~-|
B------------------------------------------------------------------|
G---------------------------------5---5---5---------------17~~~~~~-|
D-3---3---3---3---3---3---3---3---5---5---5---5---5---5------------|
A-3---3---3---3---3---3---3---3---3---3---3---5---5---5------------|
D-3---3---3---3---3---3---3---3---------------5---5---5------------|

==================================================================

Guitar 1
E-----------------------------------------------------------------|
B-----------------------------------------------------------------|
G-----------------------------------------------------------------|
D-7---7---7---7---7---7---7---7---5---5---5---5---5---5---5---5---|
A-7---7---7---7---7---7---7---7---5---5---5---5---5---5---5---5---|
D-7---7---7---7---7---7---7---7---5---5---5---5---5---5---5---5---|

Guitar 2
E-~~~~~~~~~~~~~~~~~~~~~~~~~~~-17~~~~~~~~~~~~~~~~~~~~~~~~~~~~~------|
B-------------------------------------------------------------20~~-|
G-~~~~~~~~~~~~~~~~~~~~~~~-17~~~~~~~~~~~~~~~~~~~~~~~~~~~~~-17~~~~~~-|
D------------------------------------------------------------------|
A------------------------------------------------------------------|
D------------------------------------------------------------------|

==================================================================

Guitar 1
E-----------------------------------------------------------------|
B-----------------------------------------------------------------|
G-----------------------------------------------------------------|
D-3---3---3---3---3---3---3---3---3---3---3---3---3---3---3---3---|
A-3---3---3---3---3---3---3---3---3---3---3---3---3---3---3---3---|
D-3---3---3---3---3---3---3---3---3---3---3---3---3---3---3---3---|

Guitar 2
E-----------------------------------------------------------------|
B-~~~~~~~~~~~~~~~~~~~~~~~~~~~~~~~~~~~~~~~~~~~~~~~~~~~~~~~~~~~~~~~-|
G-~~~~~~~~~~~~~~~~~~~~~~~~~~~~~~~~~~~~~~~~~~~~~~~~~~~~~~~~~~~~~~~-|
D-----------------------------------------------------------------|
A-----------------------------------------------------------------|
D-----------------------------------------------------------------|

==================================================================
==================================================================


Guitar Solo

Guitar 1
E-----------------------------------------------------------------|
B-----------------------------------------------------------------|
G---------------------------------5---5---5---5---5---5---5---5---|
D-7---7---7---7---7---7---7---7---5---5---5---5---5---5---5---5---|
A-7---7---7---7---7---7---7---7---3---3---3---3---3---3---3---3---|
D-7---7---7---7---7---7---7---7-----------------------------------|

Guitar 2
E-----------------------------------------------------------------|
B-----------------------10-13-10~~----------------------17-15-----|
G-----------------9-12----------------------------------------17--|
D-----------------------------------------------------------------|
A-----------------------------------------------------------------|
D-----------------------------------------------------------------|

==================================================================

Guitar 1
E-----------------------------------------------------------------|
B-----------------------------------------------------------------|
G-----------------------------------------------------------------|
D-5---5---5---5---5---5---5---5-------3---3---3---3---3---3---3---|
A-5---5---5---5---5---5---5---5-------3---3---3---3---3---3---3---|
D-5---5---5---5---5---5---5---5-------3---3---3---3---3---3---3---|

Guitar 2
E---------15~~~~~~~~~~~~~-----------------------------------------|
B-17~~~~~~~~~~~~~~~~~~~-17-15-------------------------------------|
G-----------------------------17--16~~~~~~~b~~~~~~~~~~r~~-14------|
D-------------------------------------------------------------17--|
A-----------------------------------------------------------------|
D-----------------------------------------------------------------|

==================================================================

Guitar 1
E-----------------------------------------------------------------|
B-----------------------------------------------------------------|
G---------------------------------5---5---5---5---5---5---5---5---|
D-7---7---7---7---7---7---7---7---5---5---5---5---5---5---5---5---|
A-7---7---7---7---7---7---7---7---3---3---3---3---3---3---3---3---|
D-7---7---7---7---7---7---7---7-----------------------------------|

Guitar 2
E-16b~~~~~~~~~~~~-----------------21b~~~~~~~~-20~~~~~~~~~-17--15--|
B-----------------------------------------------------------------|
G-----------------------------------------------------------------|
D-----------------------------------------------------------------|
A-----------------------------------------------------------------|
D-----------------------------------------------------------------|

==================================================================

Guitar 1
E-----------------------------------------------------------------|
B-----------------------------------------------------------------|
G-----------------------------------------------------------------|
D-5---5---5---5---5---5---5---5---3---3---3---3---3---3---3---3---|
A-5---5---5---5---5---5---5---5---3---3---3---3---3---3---3---3---|
D-5---5---5---5---5---5---5---5---3---3---3---3---3---3---3---3---|

Guitar 2
Et20p17p12t17p15p12t20p17p12t17p15p12t20p17p12h17-15-12----12--------------|
B-------------------------------------------------------15----15p14p12-----|
G----------------------------------------------------------------------14\-|
D--------------------------------------------------------------------------|
A--------------------------------------------------------------------------|
D--------------------------------------------------------------------------|

==================================================================

Guitar 1
E---------------------------------|
B---------------------------------|
G---------------------------------|
D-3---3---3---3---3---3---3---3---|
A-3---3---3---3---3---3---3---3---|
D-3---3---3---3---3---3---3---3---|

Guitar 2
E-------------------------------------------------------15----17----19----|
B----------------------------12-13-12-15-12-------15-17----17----17----17-|
G-------------------10-12-14----------------14/17-------------------------|
D----------10-12-14-------------------------------------------------------|
A-10-12-14----------------------------------------------------------------|
D-------------------------------------------------------------------------|
Pm.  .  .  .  .  .

==================================================================
==================================================================


Interlude

Guitar 1
E-----------------------------------------------------------------|
B-----------------------------------------------------------------|
G-5---5---5---5---5---5---5---5---5---5---5---5---5---5---5---5---|
D-5---5---5---5---5---5---5---5---5---5---5---5---5---5---5---5---|
A-3---3---3---3---3---3---3---3---3---3---3---3---3---3---3---3---|
D-----------------------------------------------------------------|
Pm.   .   .   .   .   .   .   .   .   .   .   .   .   .   .   .

Guitar 2
E-20~~~~~~~~~~~~~~~~~~~~~~~~~~~~~~~~~~~~~~~~~~~~~~~~~~~~~~~~~~~~~-|
B-----------------------------------------------------------------|
G-----------------------------------------------------------------|
D-----------------------------------------------------------------|
A-----------------------------------------------------------------|
D-----------------------------------------------------------------|

==================================================================

Guitar 1
E-----------------------------------------------------------------|
B-----------------------------------------------------------------|
G-5---5---5---5---5---5---5---5---5---5---5---5---5---5---5---5---|
D-5---5---5---5---5---5---5---5---5---5---5---5---5---5---5---5---|
A-3---3---3---3---3---3---3---3---3---3---3---3---3---3---3---3---|
D-----------------------------------------------------------------|
Pm.   .   .   .   .   .   .   .   .   .   .   .   .   .   .   .

==================================================================

Guitar 1
E-----------------------------------------------------------------|
B-----------------------------------------------------------------|
G-5---5---5---5---5---5---5---5---5---5---5---5---5---5---5---5---|
D-5---5---5---5---5---5---5---5---5---5---5---5---5---5---5---5---|
A-3---3---3---3---3---3---3---3---3---3---3---3---3---3---3---3---|
D-----------------------------------------------------------------|
Pm.   .   .   .   .   .   .   .   .   .   .   .   .   .   .   .

==================================================================

Guitar 1
E-----------------------------------------------------------------|
B-----------------------------------------------------------------|
G-5---5---5---5---5---5---5---5---5---5---5---5---4---4---4---4---|
D-5---5---5---5---5---5---5---5---5---5---5---5---4---4---4---4---|
A-3---3---3---3---3---3---3---3---3---3---3---3---2---2---2---2---|
D-----------------------------------------------------------------|
Pm.   .   .   .   .   .   .   .   .   .   .   .   .   .   .   .

Guitar 2
E-------------------------------------------------------------20~~-|
B------------------------------------------------------------------|
G---------------------------------------------------------17~~~~~~-|
D------------------------------------------------------------------|
A------------------------------------------------------------------|
D------------------------------------------------------------------|

==================================================================
==================================================================

Chorus

Guitar 1
E-----------------------------------------------------------------|
B-----------------------------------------------------------------|
G-----------------------------------------------------------------|
D-7---7---7---7---7---7---7---7---3---3---3---3---3---3---3---3---|
A-7---7---7---7---7---7---7---7---3---3---3---3---3---3---3---3---|
D-7---7---7---7---7---7---7---7---3---3---3---3---3---3---3---3---|

Guitar 2
E-~~~~~~~~~~~~~~~~~~~~~~~~~~~-17~~~~~~~~~~~~~~~~~~~~~~~~~~~~~------|
B-------------------------------------------------------------20~~-|
G-~~~~~~~~~~~~~~~~~~~~~~~-17~~~~~~~~~~~~~~~~~~~~~~~~~~~~~-17~~~~~~-|
D------------------------------------------------------------------|
A------------------------------------------------------------------|
D------------------------------------------------------------------|

==================================================================

Guitar 1
E-----------------------------------------------------------------|
B-----------------------------------------------------------------|
G-5---5---5---5---5---5---5---5-----------------------------------|
D-5---5---5---5---5---5---5---5---5---5---5---5---5---5---5---5---|
A-3---3---3---3---3---3---3---3---5---5---5---5---5---5---5---5---|
D---------------------------------5---5---5---5---5---5---5---5---|

Guitar 2
E-----------------------------19~~~~~~~~~~~~~~~~~~~~~~~~~~~~~-20~~-|
B-~~~~~~~~~~~~~~~~~~~~~~~~~~~--------------------------------------|
G-~~~~~~~~~~~~~~~~~~~~~~~-17~~~~~~~~~~~~~~~~~~~~~~~~~~~~~-17~~~~~~-|
D------------------------------------------------------------------|
A------------------------------------------------------------------|
D------------------------------------------------------------------|

==================================================================

Guitar 1
E-----------------------------------------------------------------|
B-----------------------------------------------------------------|
G-----------------------------------------------------------------|
D-7---7---7---7---7---7---7---7---3---3---3---3---3---3---3---3---|
A-7---7---7---7---7---7---7---7---3---3---3---3---3---3---3---3---|
D-7---7---7---7---7---7---7---7---3---3---3---3---3---3---3---3---|

Guitar 2
E-~~~~~~~~~~~~~~~~~~~~~~~~~~~-17~~~~~~~~~~~~~~~~~~~~~~~~~~~~~------|
B-------------------------------------------------------------20~~-|
G-~~~~~~~~~~~~~~~~~~~~~~~-17~~~~~~~~~~~~~~~~~~~~~~~~~~~~~-17~~~~~~-|
D------------------------------------------------------------------|
A------------------------------------------------------------------|
D------------------------------------------------------------------|

==================================================================

Guitar 1
E-----------------------------------------------------------------|
B-----------------------------------------------------------------|
G-5---5---5---5---5---5---5---5-----------------------------------|
D-5---5---5---5---5---5---5---5---5---5---5---5---5---5---5---5---|
A-3---3---3---3---3---3---3---3---5---5---5---5---5---5---5---5---|
D---------------------------------5---5---5---5---5---5---5---5---|

Guitar 2
E-----------------------------------------------------------------|
B-~~~~~~~~~~~~~~~~~~~~~~~~~~~-15~~~~~~~~~~~~~~~~~~~~~~~~~~~~~~~~~-|
G-~~~~~~~~~~~~~~~~~~~~~~~-17~~~~~~~~~~~~~~~~~~~~~~~~~~~~~~~~~~~~~-|
D-----------------------------------------------------------------|
A-----------------------------------------------------------------|
D-----------------------------------------------------------------|

==================================================================

Guitar 1 & 2
E-----------------------------------------------------------------|
B-----------------------------------------------------------------|
G---------------------------------5---5---5-----------------------|
D-3---3---3---3---3---3---3---3---5---5---5---5---5---5---5---5---|
A-3---3---3---3---3---3---3---3---3---3---3---5---5---5---5---5---|
D-3---3---3---3---3---3---3---3---------------5---5---5---5---5---|

==================================================================

Guitar 1
E-----------------------------------------------------------------|
B-----------------------------------------------------------------|
G---------------------------------5---5---5-----------------------|
D-3---3---3---3---3---3---3---3---5---5---5---5---5---5---5---5---|
A-3---3---3---3---3---3---3---3---3---3---3---5---5---5---5---5---|
D-3---3---3---3---3---3---3---3---------------5---5---5---5---5---|

Guitar 2
E-------------------------------------------------------------20~~-|
B------------------------------------------------------------------|
G---------------------------------5---5---5---------------17~~~~~~-|
D-3---3---3---3---3---3---3---3---5---5---5---5---5---5------------|
A-3---3---3---3---3---3---3---3---3---3---3---5---5---5------------|
D-3---3---3---3---3---3---3---3---------------5---5---5------------|

==================================================================

Guitar 1
E-----------------------------------------------------------------|
B-----------------------------------------------------------------|
G-----------------------------------------------------------------|
D-7---7---7---7---7---7---7---7---5---5---5---5---5---5---5---5---|
A-7---7---7---7---7---7---7---7---5---5---5---5---5---5---5---5---|
D-7---7---7---7---7---7---7---7---5---5---5---5---5---5---5---5---|

Guitar 2
E-~~~~~~~~~~~~~~~~~~~~~~~~~~~-17~~~~~~~~~~~~~~~~~~~~~~~~~~~~~------|
B-------------------------------------------------------------20~~-|
G-~~~~~~~~~~~~~~~~~~~~~~~-17~~~~~~~~~~~~~~~~~~~~~~~~~~~~~-17~~~~~~-|
D------------------------------------------------------------------|
A------------------------------------------------------------------|
D------------------------------------------------------------------|

==================================================================

Guitar 1
E-----------------------------------------------------------------|
B-----------------------------------------------------------------|
G-----------------------------------------------------------------|
D-3---3---3---3---3---3---3---3---3---3---3---3---3---3---3---3---|
A-3---3---3---3---3---3---3---3---3---3---3---3---3---3---3---3---|
D-3---3---3---3---3---3---3---3---3---3---3---3---3---3---3---3---|

Guitar 2
E-------------------------------------------------------------20~~-|
B-~~~~~~~~~~~~~~~~~~~~~~~~~~~~~~~~~~~~~~~~~~~~~~~~~~~~~~~----------|
G-~~~~~~~~~~~~~~~~~~~~~~~~~~~~~~~~~~~~~~~~~~~~~~~~~~~~~~~-17~~~~~~-|
D------------------------------------------------------------------|
A------------------------------------------------------------------|
D------------------------------------------------------------------|

==================================================================
==================================================================


Outro

Guitar 1
E-----------------------------------------------------------------|
B-----------------------------------------------------------------|
G-----------------------------------------------------------------|
D-7---7---7---7---7---7---7---7---5---5---5---5---5---5---5---5---|
A-7---7---7---7---7---7---7---7---5---5---5---5---5---5---5---5---|
D-7---7---7---7---7---7---7---7---5---5---5---5---5---5---5---5---|

Guitar 2
E-~~~~~~~~~~~~~~~~~~~~~~~~~~~-17~~~~~~~~~~~~~~~~~~~~~~~~~~~~~------|
B-------------------------------------------------------------20~~-|
G-~~~~~~~~~~~~~~~~~~~~~~~-17~~~~~~~~~~~~~~~~~~~~~~~~~~~~~-17~~~~~~-|
D------------------------------------------------------------------|
A------------------------------------------------------------------|
D------------------------------------------------------------------|

==================================================================

Guitar 1
E-----------------------------------------------------------------|
B-----------------------------------------------------------------|
G-----------------------------------------------------------------|
D-3~~~~~~~~~~~~~~~~~~~~~~~~~~~~~~~~~~~~~~~~~~~~~~~~~~~~~~~~~~~~~~-|
A-3~~~~~~~~~~~~~~~~~~~~~~~~~~~~~~~~~~~~~~~~~~~~~~~~~~~~~~~~~~~~~~-|
D-3~~~~~~~~~~~~~~~~~~~~~~~~~~~~~~~~~~~~~~~~~~~~~~~~~~~~~~~~~~~~~~-|

Guitar 2
E-----------------------------------------------------------------|
B-~~~~~~~~~~~~~~~~~~~~~~~~~~~~~~~~~~~~~~~~~~~~~~~~~~~~~~~~~~~~~~~-|
G-~~~~~~~~~~~~~~~~~~~~~~~~~~~~~~~~~~~~~~~~~~~~~~~~~~~~~~~~~~~~~~~-|
D-----------------------------------------------------------------|
A-----------------------------------------------------------------|
D-----------------------------------------------------------------|

==================================================================
==================================================================
==================================================================


Tab Legend
h  - hammer-on
p  - pull-off
/  - slide up
\  - slide down
ps/- pickslide up
ps\- pickslide down
~  - let ring
pm.- palm mute
b  - bend
r  - return from bend
t  - finger tapping
*  - harmonic
x  - dead note
^  - Whammy bar
^\ - Whammy bar (hold down)

Thatís the end of it! I hope this helped, and be sure to check out my cover if you are
having problems with the tab. Thanks, oh and one last thing... ROCK OUT!!!!
Tap to rate this tab
 
# A B C D E F G H I J K L M N O P Q R S T U V W X Y Z