Song name
# A B C D E F G H I J K L M N O P Q R S T U V W X Y Z

Shinedown - Adrenaline tab

Tune Down Half Step. Not sure if this is 100% accurate but should be close!


e|17-22-17--15-13--15-13-15-13-----13-12-13-----12-13-12---------|
B|------------------------------15-----------15-----------15-13--|
G|---------------------------------------------------------------|
D|---------------------------------------------------------------|
A|---------------------------------------------------------------|
E|---------------------------------------------------------------|


              
e|----------------------------------------------------------------|
B|-----------------------------------------------13-12-13-12-13-15|
G|14-13-12-10-12-10-----------12-11-12-11-12-14-------------------|
D|-------------------12-10-12-------------------------------------|
A|----------------------------------------------------------------|
E|----------------------------------------------------------------|
Tap to rate this tab
# A B C D E F G H I J K L M N O P Q R S T U V W X Y Z