Song name
# A B C D E F G H I J K L M N O P Q R S T U V W X Y Z

Shiny Toy Guns - Blown Away tab

Help us improve GuitareTab! Take a short survey!
-------------------------------------------------------------------------------
			     BLOWN AWAY - Shiny Toy Guns
-------------------------------------------------------------------------------
Tabbed by: tucker3
Email: tuckerboy13@hotmail.com

Tuning: Drop D (or you can play it down a whole step)

Hey guys, back again. Fiddling around with my guitar last night i came across a way to 
Blown Away by Shiny Toy Guns, so I though i'd share it with you guys ;D

theres a whole lot of organ stuff going on in the intro/verse, but when the guitar kicks 
it goes like this:

Just before the chorus you can hear harmonics screaming and whatnot so just play around 
harmonics on the 7th and 9th frets

Chorus

e|---------------------------------------------------------------------------|
B|---------------------------------------------------------------------------|
G|---------------------------------------------------------------------------|
D|---------------------------------------------------------------------------|
A|---------------------------------------------------------------------------|
D|---5-5-0-(x15)-8-(x8)-3 (x8)-----------------------------------------------|

do that 4 times then end on a

e|---------------------------------------------------------------------------|
B|---------------------------------------------------------------------------|
G|---------------------------------------------------------------------------|
D|--0------------------------------------------------------------------------|
A|--0------------------------------------------------------------------------|
D|--0------------------------------------------------------------------------|

then its the verse, chorus again then theres a little.. i spose you could call it a 
which i don't know what chad plays but i just muck around with some bends and hammer ons and 
offs

then there is a little bridge bit.. i think its on keyboard. this probably isnt right 
just play around with these octaves

e|---------------------------------------------------------------------------|
B|---------------------------------------------------------------------------|
G|---------------------------------------------------------------------------|
D|---7---5---3---2-----------------------------------------------------------|
A|---5---3---1---0-----------------------------------------------------------|
D|---------------------------------------------------------------------------|

you'll get it eventually. then  theres the final chorus which has slight variants.

e|---------------------------------------------------------------------------|
B|---------------------------------------------------------------------------|
G|---------------------------------------------------------------------------|
D|---------------------------------------------------------------------------|
A|---------------------------------------------------------------------------|
D|---/5--0--(half notes )--8-(x8)-3(x8)--------------------------------------|

you play it all pretty much normally except there are slides which you'll pick out. and 
finish the song:

e|---------------------------------------------------------------------------|
B|---------------------------------------------------------------------------|
G|---------------------------------------------------------------------------|
D|----------------------0----------------------------------------------------|
A|----------------------0----------------------------------------------------|
D|--5-(half tone bend)--0----------------------------------------------------|

and there you have it. finito. questions/comments tuckerboy13@hotmail.com or visit my 
thingo

cheers. and have fun.

| /  slide up
| \  slide down
| h  hammer-on
| p  pull-off
| ~  vibrato
| +  harmonic
| x  Mute note
===============================================================================
Related for Blown Away tab