Song name
# A B C D E F G H I J K L M N O P Q R S T U V W X Y Z

Shiro Sagisu - The Beast Ii tab

The Beast II - Shiro Sagisu
Song from the Anime "Neon Genesis Evangelion". Can be found on "Episode 16" and "Evangelion OST 2"

-Distortion Guitar

Main Part (Repeated many times by many instruments):
e|--------------------------------12-10-12-15--13-12-10----|
B|-----12----12-15-13-12--10--12------------------------12-|
G|-14-----14-----------------------------------------------|
D|---------------------------------------------------------|
A|---------------------------------------------------------|
E|---------------------------------------------------------|

e|--------------------------------12-10-12-15--13-12-10-12-|
B|-----12----12-15-13-12--10--12---------------------------|
G|-14-----14-----------------------------------------------|
D|---------------------------------------------------------|
A|---------------------------------------------------------|
E|---------------------------------------------------------|


Tab by: MARK
Tap to rate this tab
 
# A B C D E F G H I J K L M N O P Q R S T U V W X Y Z