Song name
# A B C D E F G H I J K L M N O P Q R S T U V W X Y Z

Shiro Sagisu - Des Cordes Opus 2 tab

Des Cordes opus 2 - Shiro Sagisu
Song from the Anime movie "Rebuild of Evangelion 2.0".


-Acoustic Guitar


Part1:
e|--------14-13-12---------14-13-12-------|
B|-3/15------------13/15------------15/17-|
G|----------------------------------------|
D|----------------------------------------|
A|----------------------------------------|
E|----------------------------------------|

e|---------------------------------------------------------------|
B|-17-15-17-13-15-12-13-12---------------------------------------|
G|-------------------------12--12----12--------------------------|
D|--------------------------------14----14-12--14--12-14-14-12---|
A|---------------------------------------------------------------|
E|---------------------------------------------------------------|



e|-------14-13-12------------14-13-12-------|
B|-/15------------13/15-(15)----------15/17-|
G|------------------------------------------|
D|------------------------------------------|
A|------------------------------------------|
E|------------------------------------------|

e|----------------------------------------------------|
B|-17-15-17-13-15-12-13-12-----------------15--12-----|
G|-------------------------12--12----12------------12-|
D|--------------------------------14----14------------|
A|----------------------------------------------------|
E|----------------------------------------------------|



Part2:
e|---------------------------------------15-15----------------------------|
B|-----15-15---15-13-12---------12-13-15-------15-15-13-15-13--17--15--12-|
G|-12-------------------14---14-------------------------------------------|
D|------------------------------------------------------------------------|
A|------------------------------------------------------------------------|
E|------------------------------------------------------------------------|



e|---------------------------------------------------------------|
B|-----15-15---15-13-12---------12---------------------------(3)-|
G|-12-------------------14---14----14--12-12----12----14^--------|
D|-------------------------------------------14----14------------|
A|---------------------------------------------------------------|
E|---------------------------------------------------------------|



Part3:
e|----------14-13-12---------17--14--13-----------14-13-12---------|
B|-x-3/15------------13/15--------------15-17-15-----------13/15---|
G|-----------------------------------------------------------------|
D|-----------------------------------------------------------------|
A|-----------------------------------------------------------------|
E|-----------------------------------------------------------------|


Part4/Solo:
e|-----------------------------------|
B|-13-12-----------------------------|
G|-------14-12----12----14^-12-------|
D|-------------14----14--------14-12-|
A|-----------------------------------|
E|-----------------------------------|

e|-----------------------------------|
B|-13-12-----------------------------|
G|-------14-12----12----14^-12-------|
D|-------------14----14--------14-12-|
A|-----------------------------------|
E|-----------------------------------|

e|-----------------------------|
B|-x-15/17--x-15/17--17-15-17--|
G|-----------------------------|
D|-----------------------------|
A|-----------------------------|
E|-----------------------------|

e|------------------------------------------------------------|
B|-17-15-17-13-15-12-13-10-12-10----10------10----------------|
G|-------------------------------12------12----12-10----------|
D|---------------------------------------------------12-10----|
A|---------------------------------------------------------12-|
E|------------------------------------------------------------|

e|-------------------------------|
B|-15-x-x-15-x-x-17-19-15--15-15-|
G|-xx-x-x-xx-x-x-xx-xx-xx--xx-xx-|
D|-xx-x-x-xx-x-x-xx-xx-xx--xx-xx-|
A|-------------------------------|
E|-------------------------------|

e|---------------------------------------------|
B|-10-12-10--------------------12--12--11--10--|
G|----------12-10--------10-12-----xx--xx--xx--|
D|----------------12--12-----------xx--xx--xx--|
A|---------------------------------------------|
E|---------------------------------------------|

e|--|
B|--|
G|--|
D|--|
A|--|
E|--|



-Repeat Part 3-

-Repeat Part 1-

-Repeat Part 2-

-Repeat Part 3-


Tab by: MARK
Tap to rate this tab
 
# A B C D E F G H I J K L M N O P Q R S T U V W X Y Z